PrimaNota.ru - самый крупный в мире бесплатный архив песенных текстов, аккордов, табулатур и нот


Holguin Gnomie - Limit - таба

Регистрация Запомнить меня
Войти через:  Facebook Google Twitter Vk Yandex Mail.ru

Holguin Gnomie - Limit - таба

Печатать
Просмотров: 62
tuning:standard
album:hit the fuckin strings
band:gnomie holguin
song:limit
key:
/=slide
pm...=palm mute


      intro:
e|---------------------------------------------------------------
b|---------------------------------------------------------------
g|---------------------------------------------------------------
d|-----2-2-----3-3-----------------------------------------------
a|-2-2-0-0-3-3-1-1-----------------------------------------------
E|-0-0-----1-1---------------------------------------------------
  pm.............................................................
            riff#1
e|----1-2-1-3-1-2---1-2-1-3-1-2---1-2-1-3-1-2---1-2-----2-1------
b|-3-3-----------1-1-----------0-0-----------2-2-----1-1---------
g|---------------------------------------------------------------
d|---------------------------------------------------------------
a|---------------------------------------------------------------
E|---------------------------------------------------------------

            riff#2
e|---3|   e|---2|   e|---1|   e|---0---2--|
b|--3-|x2 b|--2-|x2 b|--1-|x2 b|--0---2---|
g|-3--|   g|-2--|   g|-1--|   g|-0---2----|
d|----|   d|----|   d|----|   d|----------|
a|----|   a|----|   a|----|   a|----------|
E|----|   E|----|   E|----|   E|----------|

          verse: bass does verse

          chorus:hit every measure 13 times
e|---|---|---|---|---|---|---|---|---|---|---|---|
b|---|---|---|---|---|---|---|---|---|---|---|---|
g|---|---|---|---|---|---|---|---|---|---|---|---|
d|---|---|---|---|---|---|---|---|---|---|---|---|
a|-9-|-7-|-5-|-4-|-12|-11|-9-|-7-|-12|-14|-11|-9-|
E|-7-|-5-|-3-|-2-|-10|-9-|-7-|-5-|-10|-12|-9-|-7-|

              just end with this:
               outro:

e|----|
b|----|
g|----|
d|----|
a|-9/-|
E|-7/-|




     
Добавлено: 02.09.2013
Другие материалы по этой песне:
  • Аккорды и текст

Страница создана 02.09.2013
http://primanota.ru/holguin-gnomie/limit-chords.htm
Привет, Гость.
Предлагаем пройти революционный курс по гитаре.
Подарок от PrimaNota.Ru, забирай!