PrimaNota.ru - самый крупный в мире бесплатный архив песенных текстов, аккордов, табулатур и нот


Hole - Your Empathy - таба, видео

Регистрация Запомнить меня
Войти через:  Facebook Google Twitter Vk Yandex Mail.ru

Hole - Your Empathy - таба, видео

Печатать
Просмотров: 62
-------------------------------------------------------------------------------
                             Your Empathy by Hole
-------------------------------------------------------------------------------
Tabbed by: Scott

Rare track performed at La Luna club in Portland, OR, o September 28, 1993. They 
never recorded a live version of the song, and this is the only known live 
performance as well.

Tuning: Standard

Main Riff (repeated throughout):

     G#5    D#5  E5     B5      F#5
e|---------------------------------------------|
B|---------------------------------------------|
G|-----------8-8-9-9--4-4-4-4------------------|
D|--6-6-6-6--8-8-9-9--4-4-4-4-4-4-4-4----------|
A|--6-6-6-6--6-6-7-7--2-2-2-2-4-4-4-4----------|
E|--4-4-4-4-------------------2-2-2-2----------|

Repeat this riff throughout the song. There are a couple string mutes, and at the 
end verse they are just playing muted G#5.


Lyrics:
                  
Your empathy
Inside of me
Hey, I don't want
Your empathy

And I want you
Inside of me
And I don't want
Your empathy

You're so good, and I'm so bad
You get everything that I never did
And you're so big, and I'm so small
You get everything
I get nothing at all

Your empathy
Inside of me
And I want you
Inside of me

And I don't want
Your sympathy
I don't need 
Your sympathy

You're so good, and I'm so bad
You get everything that I never did
Baby, you're so big, and I'm so small
You get everything
I get nothing at all

Pretty princess
Pretty fascist
Tell that bitch to shut up, yeah
Pretty princess
Pretty fascist
Tell that bitch to just shut up
Pretty incest
Pretty fascist
Tell her that she better just shut up
Добавлено: 26.11.2013
Другие материалы по этой песне:
  • Аккорды и текст

Страница создана 26.11.2013
http://primanota.ru/hole/your-empathy-chords.htm
Привет, Гость.
Предлагаем пройти революционный курс по гитаре.
Подарок от PrimaNota.Ru, забирай!