PrimaNota.ru - самый крупный в мире бесплатный архив песенных текстов, аккордов, табулатур и нот


Hole - Time To Kill - таба, видео

Регистрация Запомнить меня
Войти через:  Facebook Google Twitter Vk Yandex Mail.ru

Hole - Time To Kill - таба, видео

Печатать
Просмотров: 111
-------------------------------------------------------------------------------
                             Time to Kill by Hole
-------------------------------------------------------------------------------

Also known as "Just Do It" and "Black Day", this was played frequently at concerts in 
1994/95. There are variations of the song, but the lyrics I posted are pretty consistent 
with all the versions.

Tabbed by: Scott H.


Tuning: Standard

Intro:

e|----------------------------------------|
B|----------------------------------------|
G|----------------------------------------|
D|----------------------------------------|
A|----------------------------------------|
E|--0-0-0-0-0-0-0-0-0--2-2-2--3-3-3-3-3---|


Then play:

e|------------------------------------------|
B|------------------------------------------|
G|------------------------------------------|
D|------------------------------------------|
A|-------------------4-4-4--5-5-5-5-5-------|
E|--0-0-0-0-0-0-0-0--2-2-2--3-3-3-3-3-------|



During the chorus, there is a guitar that plays this:

e|-------------------------------------------------|
B|-------------------------------------------------|
G|-------------------------------------------------|
D|---9-9-9-9-9-9-9-9--11-11-11--12-12-12-12-12-----|
A|---7-7-7-7-7-7-7-7---9--9--9--10-10-10-10-10-----|
E|-------------------------------------------------|



Lyrics:

Just do it, baby
Well, I fucking will
You got nothing left but time
Time left to kill

Just do it, baby
You've got nothing left
There is nothing left of you
That I don't possess

Yeah, no
My messiah rose up
Rose up from the mud
He wanted everything
Every drop of my blood

Just do it, baby
It feels so good
You've got nothing of possession
And I don't think you could

Yeah, yeah, yeah
Yeah, no, no
No, no, no, no
No, no, no, no

Just do it, bitch
You've got nothing left
Добавлено: 29.08.2013
Другие материалы по этой песне:
  • Аккорды и текст

Страница создана 29.08.2013
http://primanota.ru/hole/time-to-kill-chords.htm
Привет, Гость.
Предлагаем пройти революционный курс по гитаре.
Подарок от PrimaNota.Ru, забирай!