PrimaNota.ru - самый крупный в мире бесплатный архив песенных текстов, аккордов, табулатур и нот


Hole - Teenage Whore - аккорды и текст, таба, видео

Регистрация Запомнить меня
Войти через:  Facebook Google Twitter Vk Yandex Mail.ru

Hole - Teenage Whore - аккорды и текст, таба, видео

Печатать
Просмотров: 456
Уроки эстрадного вокала в Санкт-Петербурге
Teenage Whore
Hole
-------------------------------------------------------------------------------
                             Teenage Whore by Hole
-------------------------------------------------------------------------------
Tabbed by: Scott H.

Tuning: EADGBE

Verse I:

     Em      G5  F5 Em F5 Em
e|------------------------------------------|
B|------------------------------------------|
G|------------------------------------------|
D|-2-2-2-2--5-5--3--2--3--2-----------------|
A|-2-2-2-2--5-5--3--2--3--2-----------------|
E|-0-0-0-0--3-3--1--0--1--0-----------------|

    When I was a teenage whore
    My mother asked me, she said "Baby, what for?"
    "I give you plenty, why do you want more?"
    "Baby, why are you a teenage whore?"


Verse II:

       D5           A5         F5              Em
e|--------------------------------------------------------------|
B|--------------------------------------------------------------|
G|--7-7-7-7-7-7-------------------------------------------------|
D|--7-7-7-7-7-7-7-7-7-7-7-7-3-3-3-3-3-3--2-2-2-2-2-2-2-2--------|
A|--5-5-5-5-5-5-7-7-7-7-7-7-3-3-3-3-3-3--2-2-2-2-2-2-2-2--------|
E|--------------5-5-5-5-5-5-1-1-1-1-1-1--0-0-0-0-0-0-0-0--------|

    I said, "I feel so alone, and I,"
    "I wish I could die"
    "I've seen the things you put me through, and I,"
    "I wish I could die"


Verse I

    When I was a teenage whore
    The rain came down like it never did before
    I pay good money not to be ignored
    And why am I a teenage whore?

Verse II

    I've seen your repulsion 
    And it looks real good on you
    Denying what...
    What you put me through


Bridge:

       D5        A#5       G#5
e|-----------------------------------------------|
B|-----------------------------------------------|
G|--7-7-7-7-7------------------------------------|
D|--7-7-7-7-7-8-8-8-8--6-6-6-6-6-6-6-6-----------|
A|--5-5-5-5-5-8-8-8-8--6-6-6-6-6-6-6-6-----------|
E|------------6-6-6-6--4-4-4-4-4-4-4-4-----------|

    ...of my house
    Get out of my house
    Get out of my house
    Get out of my house


Verse I

    When I was a teenage whore
    My mother asked me, she said "Baby, what for?"
    "I give you plenty, why do you want more?"
    "Baby, why are you a teenage whore?"


Verse II

    I've seen your repulsion 
    And it looks real good on you
    I don't want to live what,
    What you have put me through

    I wanted that shirt, and I,
    I wanted those pants
    It's all the light you put me through
    And I never had a way

(On final line, repeat Em portion x 4)
Добавлено: 18.07.2013
Другие материалы по этой песне:
  • Аккорды и текст

Страница создана 10.04.2012
http://primanota.ru/hole/teenage-whore-chords.htm
Привет, Гость.
Предлагаем пройти революционный курс по гитаре.
Подарок от PrimaNota.Ru, забирай!