PrimaNota.ru - самый крупный в мире бесплатный архив песенных текстов, аккордов, табулатур и нот


Holdsworth Alan - Cloak Of Antiquity - таба, видео

Регистрация Запомнить меня
Войти через:  Facebook Google Twitter Vk Yandex Mail.ru

Holdsworth Alan - Cloak Of Antiquity - таба, видео

Печатать
Просмотров: 77
Alan Holdsworth - Solo from the song "Cloak of Antiquity"
on the "Book of the Dead" album by K2 (K-squared), released
4/10/05 by Prog Rock Records. Tab lines are roughly grouped
by phrases. Play legato throughout.

 ----------------------------------------------------------
 ----------------------------------------------13h-15h-17--
 -----------------------12-14-14/-16--171717---------------
 -------------------9-12-----------------------------------
 --/-7---9-h-10h-12----------------------------------------
 ----------------------------------------------------------


Phrase continued 2 notes into next line:

 --------------------------------------14-15-15/-17--15p-14--
 -15p-13p-12-------------------------15--------------------17
 -----------14p-13p-12p-11------12-16------------------------
 -------------------------12/-14-----------------------------
 ------------------------------------------------------------
 ------------------------------------------------------------

 -------------/-19---p-15----------------------------
 --/-19-15---------------17--17-17--/-19-15------\-10
 --------------------------16------------------------
 ----------------------------------------------------
 ----------------------------------------------------
 ----------------------------------------------------

 ----------------------------------------------------------------
 --10^---10-9-8-7------------------------------------------------
 -----------------10-9-7-9-h-10p-9-p-7---9-p-7---9---/-11-7--\-2-
 --------------------------------------9-------9-----------------
 ----------------------------------------------------------------
 ----------------------------------------------------------------


Next phrase is 2 lines:

 ----------3-/-4---------4-/-5---------5-/-6---------6-/-7-p-5-p-3-
 --------2-------------3-------------4-------------5---------------
 --2-h-6---------3-h-7---------4-h-8---------5-h-9-----------------
 ------------------------------------------------------------------
 ------------------------------------------------------------------
 ------------------------------------------------------------------

 ------------------------------
 --7-p-5-h-8-------------------
 -----------------4----p-2-h-5-
 ------------------------------
 ------------------------------
 ------------------------------

Play this line twice; phrase continued on next line.
 ------------------------------------------------------
 ------------------------------------------------------
 ------------5-h-7-h-9-p-5-h-7---5---------------------
 ------------------------------9---7-h-p-5-h-7---5-----
 --5-h-7-h-9-----------------------------------9---7-p-
 ------------------------------------------------------

 ------------------------------------------------------------------
 ------------------------------------------------------------------
 ------------4-h-5-h-7-p-4-h-5---4---------------------------------
 ------------------------------7---5-h-7-p-4-h-5---4---------------
 --3-h-5-h-7-------------------------------------7---5-/-7-7-5-/-12
 ------------------------------------------------------------------

Next phrase is 2 lines (also the most difficult to play at tempo!):

 -----------------------------------------------------------------
 ----------------15/-17\-15-----------------------15/-17\-15------
 ----------12h-16----------1612-------------12h-16----------16p-12
 --------14--------------------14---------14----------------------
 --12h-16------------------------16-12h-16------------------------
 -----------------------------------------------------------------

 ------------------------------------------
 ----------------------15/-17-17-14-14-12--
 ----------------12h-16--------------------
 --14----------14--------------------------
 -----16-12h-16----------------------------
 ------------------------------------------

 --9-^--7-------------------------
 ---------10p-8-p-7---------------
 -------------------7-------------
 ---------------------9-----------
 -----------------------10p-9-p-7-
 ---------------------------------

Play this line twice:

 ------------------------------------------------------------------
 ------------------------------------------------------------------
 ------------------------------------------------------------------
 ------------------------------------------------------------------
 --/-9-h-10-h-12t-17p-12p-10p-9-\-7-/-9-h-10h-12t-19p-12p-10p-9-\-7
 ------------------------------------------------------------------

Transcribed by Karl Johnson 4/14/05. kj@dslextreme.com
Watch for more transcriptions from this album in the near future!!!





     
Добавлено: 09.09.2013
Другие материалы по этой песне:
  • Аккорды и текст

Страница создана 09.09.2013
http://primanota.ru/holdsworth-alan/cloak-of-antiquity-chords.htm
Привет, Гость.
Предлагаем пройти революционный курс по гитаре.
Подарок от PrimaNota.Ru, забирай!