PrimaNota.ru - самый крупный в мире бесплатный архив песенных текстов, аккордов, табулатур и нот


Hokus Pick - Fading Away - таба, видео

Регистрация Запомнить меня
Войти через:  Facebook Google Twitter Vk Yandex Mail.ru

Hokus Pick - Fading Away - таба, видео

Печатать
Просмотров: 85
		   Fading Away
by Hokus Pick
Copyright 1995 Hokus Pick Music

Pretty easy song to learn

Intro Tab, played at times throughout
|3--2-----0--2---3--2----0--2----------------------------------
|-3--------3------3-------3------------------------------------
|--2--------2------2-------2-----------------------------------
|--------------------------------------------------------------
|--------------------------------------------------------------
|--------------------------------------------------------------

Main Tab
|--------------------------------------------------------------
|------------------------7p5-----------------------------------
|---6h7----6h7----6h7--------7p6--6h7-------ect----------------
|------7-7----7-7----7-7--------------7-7----------------------
|--------------------------------------------------------------
|--------------------------------------------------------------

Lyrics:

Intro Tab

D
I want to do what I say, and say I what do
But so often I find, the opposite's true
Sometimes I feel like a dog, chasing it's tail
While the effort is strong, the method is stale
D      A       G       D         A       G      D
I'll chase the blues away if you make me green to stay


Chorus with Main Tab:
     Bm      G           D         A
I'm livin' I'm driven I'm guilty and forgiven
    Bm       G           D              A
I believe it recieve it I eat it live it breathe it
    Bm           G              D             A
I'm swaying, I'm straying, I'm leaving and I'm staying
    Bm           G            D               A       D
I'm yearning, and learning, and I will not be fading away

D
The critics will say that I'll be desert
but I'll turn it around, they'll eat their words
It can freshen you up--it's a new state
when you know you'll outlive, your expiry date
D         A    G  D      A       G     D
unlike on old TV,   that has no guarantee 

Chorus

(I'm unsure of this next part)
B                                     Bb 
 Some things just can't be done in a day

Intro Tab,
Then Main Tab with Chorus Chords,
Then Chorus

Chords:
D 	10/12/12/xxx
B	799xxx
G	355xxx
A	577xxx
Bb	688xxx
     
Добавлено: 13.10.2013
Вам также может быть интересно:
Другие материалы по этой песне:
  • Аккорды и текст

Страница создана 13.10.2013
http://primanota.ru/hokus-pick/fading-away-chords.htm
Привет, Гость.
Предлагаем пройти революционный курс по гитаре.
Подарок от PrimaNota.Ru, забирай!