PrimaNota.ru - самый крупный в мире бесплатный архив песенных текстов, аккордов, табулатур и нот


Hokus Pick - Chase The Wind - таба, видео

Регистрация Запомнить меня
Войти через:  Facebook Google Twitter Vk Yandex Mail.ru

Hokus Pick - Chase The Wind - таба, видео

Печатать
Просмотров: 83
Уроки эстрадного вокала в Санкт-Петербурге
		   Chase the Wind
by Hokus Pick
copyright 1995 Hokus Pick Music


Capo 1st fret.  Chords can be open.


Am       C           G
I open pockets full of sand
Am     C                    G
from the house that I was building
Am       C                           G         
Bricks and sticks and stones will fall when you shake them down
Am  C               G
Emptiness is not fulfilling


Chorus:

Am     C    G       Em
If I remember not and ashes fly
Am      C     G           Em
this will be my lot, I'll say goodbye
Am   C        G                   Em
words cannot be rhymed when life is thin
Am    C         G         Em
Nothing will I find, when I chase the wind

Post Chorus Riff: (Relative to Capo)

------------------------------
------------------------------
------------------------------
-9-10-9-10-9/5--5/2--2/5------
------------------------------
------------------------------

Am    C                     G
The world before me when I'm young
Am       C                    G
I have the strength to go exploring
Am             C                G
There's no definition to the sights in at the end
Am         C              G
You were the one I was ignoring


Chorus


Solo: 
----------------------------------
----------------------------------
----------------------------------
-9-10---9-10-7-9-10-12--9-10------
----------------------------------
----------------------------------

----------------------------------
----------------------------------
----------------------------------
-9-10-9-7-9-10-12-10-12b--12b-12b-
----------------------------------
----------------------------------

----------------------
----------------------
----------------------
-10-9-7-10-7-5-4-2b-2-
----------------------
----------------------

Chorus

Final Chorus Riff (Different from the previous)
-----------------------------------------
-----------------------------------------
5-9/7--5-9/7--7---5---4------------------
-------------------------------2--5--7--- x3
-----------------------------------------
-----------------------------------------


Please fix any mistakes. The solo's kind of sloppy, on my part...I'm not sure if I got in all the notes ect.
     
Добавлено: 02.10.2013
Другие материалы по этой песне:
  • Аккорды и текст

Страница создана 02.10.2013
http://primanota.ru/hokus-pick/chase-the-wind-chords.htm
Привет, Гость.
Предлагаем пройти революционный курс по гитаре.
Подарок от PrimaNota.Ru, забирай!