PrimaNota.ru - самый крупный в мире бесплатный архив песенных текстов, аккордов, табулатур и нот


Hoja De Parra - Rumbos - таба, видео

Регистрация Запомнить меня
Войти через:  Facebook Google Twitter Vk Yandex Mail.ru

Hoja De Parra - Rumbos - таба, видео

Печатать
Просмотров: 139
Уроки эстрадного вокала в Санкт-Петербурге
Intro:  D A C G (2x)

e)---------------------------------------13----------------------------------|
b)-8h10^---------------------------8h10^----10b11rb10-8^--------7-----10-----|
g)-------11br-9-9br-7^-------7-7^------------------------9r7-9b-9b-7^---9----|b7^
d)-----------------------7h9-------------------------------------------------|
a)---------------------9-----------------------------------------------------|
E)---------------------------------------------------------------------------|

       D                A
Se que todos bien sabrán

       C               G
Que todo cambia con el tiempo

       D                A
Que nada dura para siempre

       C              G
Que sin final no existe el cuento

       D              A
Y se que algunos me dirán

       C             G
Por fin se acaba este tormento

    Em
Pero nunca se olvidarán

      A
De estas historias que vivieron

Chorus:

Y aunque cada uno toma su rumbo
Ya nos veremos
que siga el mundo entre sonrisas
Nos volveremos a encontrar


e)-----------------------------------------|
b)-----------------------------------------|
g)-7/0------------2--4------------7---7/9--|
d)-7/0--------4---2--4---4--5--7--7---7/9--|
a)-5/0--------4---0--2---4--5--7--5---5/7--|
E)------------2----------2--3--5-----------|

Son mis amigos son mis hermanos
Alcen sus vasos que hoy día nos vamos
Y no se olviden de cuando en cuando de regresar

e)-----------------------------------------|
b)-----------------------------------------|
g)-7/0------------2--4--5---------7---7/9--|
d)-7/0--------4---2--4--5---5--7--7---7/9--|
a)-5/0--------4---0--2--3---5--7--5---5/7--|
E)------------2-------------3--5-----------|


Bridge:

e)--------------------------------------------------------------------|
b)--------------------------------------------------------------------|
g)--9br----9*-------------------------------------------11-14--12b14--|
d)------12----12--10-12-10b--7---7----------------10-12---------------|
a)-----------------------------9-------------9-12---------------------|
E)---------------------------------10^----10--------------------------|


e)--------------------------------|
b)------------------13------------|
g)----12rb14-10-12b14br12--10-^---|
d)--------------------------------|
a)--------------------------------|
E)--------------------------------|


e)-----10----------------------------------------*
b)--------13r10----------------------------------*
g)-12b----------12b--10h12r10-----10b------------*
d)----------------------------12------12-10-12^^-*
a)-----------------------------------------------*
E)-----------------------------------------------*


The Brazilian rythm and chords should be like this:


Bm7    D    E

-2----2----0----|
-3----3----0----|
-2----2----1----|
-4----0----2----|
-2---------2----|
-2---------0----|

Again.. its not my tab.. but i edit em.. so, it's not just a copy&paste system (:

www.hojadeparraperu.com
Добавлено: 09.05.2012
Другие материалы по этой песне:
  • Аккорды и текст

Страница создана 09.05.2012
http://primanota.ru/hoja-de-parra/rumbos-chords.htm
Привет, Гость.
Предлагаем пройти революционный курс по гитаре.
Подарок от PrimaNota.Ru, забирай!