PrimaNota.ru - самый крупный в мире бесплатный архив песенных текстов, аккордов, табулатур и нот


Hoja De Parra - En Aquel Tiempo - таба, видео

Регистрация Запомнить меня
Войти через:  Facebook Google Twitter Vk Yandex Mail.ru

Hoja De Parra - En Aquel Tiempo - таба, видео

Печатать
Просмотров: 70
Новый альбом группы 'Черный Кузнец' по культовому сериалу 'Сверхъестественное'!
Esta fue la primera canción que escuché de este grupazo,
el cual me parece muy bacán.
Es fácil solo hay que buscar los tiempos.
Trataré de subir más canciones de esta banda.

INTRO
D              Am             G
Quiero estar de nuevo en aquel tiempo

A#  C

Bm       G       Em      A


    Bm          G        Em        A
-5-------5----------5------5/7--5-----------
---7-------7-----------7------------9p7p9p7-
-----7-------7--6---------------------------
--------------------------------------------
--------------------------------------------
--------------------------------------------

Bm                      G
Ha pasado tanto tiempo casi ya ni lo recuerdo

Em                     A
desde que cada uno escogió su propio rumbo

Bm                            G
Desde entonces no nos vemos casi ni nos conocemos

Em                               A
por mas que compartimos un mar de recuerdos

Bm   A      D
     Qué será

Em         F#m               A
Llegaste a ser lo que querías

Bm   A     D
    Yo sigo acá

Em         F#m               A
Tal vez nos veamos algún día


Bm             G        Em
----------10--9-------------------------------
-10-10p7---------***---10-10p7-----10-10p7----
-----------------***-----------9/7------------
-----------------***--------------------------
----------------------------------------------
----------------------------------------------
          A
----------------------------------------------
---10-10p7------------------------------------
------------9b--7~----------------------------
----------------------------------------------
----------------------------------------------
----------------------------------------------


Bm                               G
Ha pasado tanto tiempo he intentado mil inventos

Em                               A
pero no hay manera de volver hacia atrás

Bm                     G
Y es que nunca nos sentamos juntos y reflexionamos

Em                               A
lo que era que nos unía y que veía que se moría

Bm   A     D
     Qué será

Em         F#m               A
Llegaste a ser lo que querías

Bm   A     D
    Yo sigo acá

Em         F#m               A
Tal vez nos veamos algún día


Coro (x2)

D              Am              G
Quiero estar de nuevo en aquel tiempo

            A#  C
cuando nada podría ser igual


D               Am              G
Cuando se crearon todos los recuerdos

            A#  C
y ahora miro y sé que no volverán


Bm
Yo sé que no volverán


------------------------------------------------
------------------------------------10----------
---------------6/7--6----7p6--9p7-------7-------
-7-7-4-7/9------------7-------------------------
------------------------------------------------
------------------------------------------------


------10p9--------------------------------------
10-7----------10--7--10/12--10--7---------------
------------------------------------7/9--9------
------------------------------------------------
------------------------------------------------
------------------------------------------------

------------------------------------------------
------------------------------------------------
-7--9--7/9--9--7--------------7-----------------
------------------7--7/9--7-------7-7-4-7/9-----
------------------------------------------------
------------------------------------------------


Bm                     G
Ha pasado tanto tiempo he intentado mil inventos

Em                               A
pero no hay manera de volver hacia atrás

Bm                     G
Y es que nunca nos sentamos juntos y reflexionamos

Em                               A
lo que era que nos unía y que veía que se moría

Bm   A     D
     Qué será

Em         F#m               A
Llegaste a ser lo que querías

Bm   A     D
    Yo sigo acá

Em         F#m               A
Tal vez nos veamos algún día


-----------10--7---10--9----------------
---10/12------------------10--7---------
---------------------------------9--7---
----------------------------------------
----------------------------------------
----------------------------------------

Saludos pa la gente de la PUCP!
EEGG LETRAS.
Добавлено: 24.11.2014
Другие материалы по этой песне:
  • Аккорды и текст

Страница создана 24.11.2014
http://primanota.ru/hoja-de-parra/en-aquel-tiempo-chords.htm
Привет, Гость.
Предлагаем пройти революционный курс по гитаре.
Подарок от PrimaNota.Ru, забирай!