PrimaNota.ru - самый крупный в мире бесплатный архив песенных текстов, аккордов, табулатур и нот


Hoja De Parra - Adiós - таба, видео

Регистрация Запомнить меня
Войти через:  Facebook Google Twitter Vk Yandex Mail.ru

Hoja De Parra - Adiós - таба, видео

Печатать
Просмотров: 72
Новый альбом группы 'Черный Кузнец' по культовому сериалу 'Сверхъестественное'!
Weno aqui otro tab d Hoja de parra ^^, no es perfecto, pero
coo no abian mas... supongo q d algo servira ^^ ojala les guste ^^

PD: esta es mi version, nunk he ido a un concierto d este grupo, asi q
no c si la version original usa o no capo, al - a mi me suena bien
dudas, comentarios a guill_3@


          ******************************
          *    USEN CAPO EN 3º TRASTE  *
          ******************************
Por lo tanto... el 0 vendiria a ser 3 y etc... (puse esto xseakso^^)

          ******************************
          *    USEN CAPO EN 3º TRASTE  *
          ******************************
Por lo tanto... el 0 vendiria a ser 3 y etc... (puse esto xseakso^^)
(las 2 veces son a proposito xD)

Dm        [xx0232]
Bmm       [224432]
D*-       [300032]
Am        [002220]


-------0h2-2-0h2r2--------0-2-0h2r0-----------------------
---3--------------3^--2-3-----------3-------------7h8r7---
-3--2---------------------------------------7-4-7---------
-0---0----------------------------------4-7---------------
--------------------------------------5-------------------
----------------------------------------------------------

---7-7----5-5---3-3---2----0h2r2-------
-0-8-8--0-7-7-0-5-5-3---3--------3^^---
---------------------------------------
----------------------------0----------
---------------------------------------
---------------------------------------

---------10-9-8-----------------------------------------------------
-5h7^^-7---------10-5h7---7r5--7h5-5---------------------7-8r7------
-----------------------------7-----------7--------6-7-9--------9----
-------------------------------------7h9------6-9-------------------
--------------------------------------------9-----------------------
--------------------------------------------------------------------

----------------
----------------
----7h9r7-7^----
--9-------------
----------------
----------------
PD: traten de coger el tiempo ...

   D                  Bm                  D*
ya el tiempo ha pasado, la tormenta se calmó

                          A                            D
pienso que ya te he olvidado y que no te quiero a mi lado

                 Bm                          D*
dicen que si no te duele es que nunca hubo amor,

           A
que fue una cosa de locos

                 D
y que nunca resultó


Solo 2


---------------5-5---5h7-5^--5-5--3--2---------------------------------
-5h7-5h7-----------7---------7-7--5--3-----5h7r7--------------3--------
---------7^------------------------------7-------7-4------3-6---4------
------------------------------------------------------3-6--------------
-----------------------------------------------------------------------
-----------------------------------------------------------------------

Am/C [032210]


Am/C           G                 D
ya todo terminó, ya se cerró el libro

                        A                     C
y queda un corazoó herido que aún quiere estar contigo

                      G                    D
esto es más que un adiós, es un grito al viento,

                           A
es un golpe contra el tiempo que se llevó nuestra ilusión


-3---3---3---3---3----3--3--3---*
-3---3---3---3---3----3--3--0---*aqui solo estan los acordes
-0---0---0---0---0----0--0--0---*uds generen los patrones de ritmo
-2---0---0---0--0h2---0--0--0---*(usualmente tocan las 3 ultimas cuerdas
-3---2---1---3---3----2--1--3---*como bajo y despues las 3 primeras
-------------2--------------2---*un par de veces) pero weno ia lo ven uds


D                        Bm                  D*
fue en un día o una tarde en la que todo cambió,

                          A
fue una espina envenenada, una yaga en mi interior,

D                              Bm
es la lluvia en la mañana que me ayuda a ver mejor,

D*                          A
es el sol que siempre engaña disfrazado de tu voz


---------------5-5---5h7-5^--5-5--3--2---------------------------------
-5h7-5h7-----------7---------7-7--5--3-----5h7r7--------------3--------
---------7^------------------------------7-------7-4------3-6---4------
------------------------------------------------------3-6--------------
-----------------------------------------------------------------------
-----------------------------------------------------------------------


 Am/C              G                 D
ya todo terminó, ya se cerró el libro

                        A                      C
y queda un corazoó herido que aún quiere estar contigo

                      G                    D
esto es más que un adiós, es un grito al viento,

                           A
es un golpe contra el tiempo que se llevó nuestra ilusión


---2-2---2-2---*
-3-3-3---3-3---*  hacen esto
-2-----2-------*  las veces que sean nescesarias
---------------*  despues sigue esto
---------------*
---------------*

1.-2h3r2r0-------------         2.-5r3r2h3--2-2-------------0h2r2----
y ----3----3^^---------         y -----------5--5-3-5---0h3-------3^^
3.---------------------         4.--------------------2--------------
  ---------------------           -----------------------------------
  ---------------------           -----------------------------------
  ---------------------           -----------------------------------


D         A          D            G   [320033]
D         A          D            G2  [320003]
oiao oiao...

para esta part tambien se usan los acordes dl oiao oiao..., casi
con el mismo ritmo, osea s coo una continuacion, coo si siguieran
tocando la part dl oaio...


D         A          D            G   [320033]
D         A          D            G2  [320003]

ya todo terminó, ya se cerró el libro
y queda un corazón herido que aun quiere estar contigo
esto es más que un adiós, es un grito al viento,
es un golpe contra el tiempo que se llevó nuestra ilusión


Explicacion del tab

h= hammer - martilleo
r= release (lo contrario dl hammer)
b= Bend, estirar la cuerda asta llegar al tono deseado
rb= release bend, subir la cuerda y tocarla cuando recien este bajando
^^= esto d aca s vibrato
Добавлено: 15.08.2014
Вам также может быть интересно:
Другие материалы по этой песне:
  • Аккорды и текст

Страница создана 15.08.2014
http://primanota.ru/hoja-de-parra/adios-chords.htm
Привет, Гость.
Предлагаем пройти революционный курс по гитаре.
Подарок от PrimaNota.Ru, забирай!