PrimaNota.ru - самый крупный в мире бесплатный архив песенных текстов, аккордов, табулатур и нот


Hocus Pocus - Histoire Dune Vhs - таба, видео

Регистрация Запомнить меня
Войти через:  Facebook Google Twitter Vk Yandex Mail.ru

Hocus Pocus - Histoire Dune Vhs - таба, видео

Печатать
Просмотров: 142
Уроки эстрадного вокала в Санкт-Петербурге
-------------------------------------------------------------------------------
                  L'HISTOIRE D'UNE VHS - Hocus Pocus
-------------------------------------------------------------------------------
Tabbed by: Bielorusse
E-mail: thibautvoirand@gmail.com

Tuning: EADGBe

Hi guys, I've been strumming along this great song from Hocus Pocus.
This is basically hip-hop so I couldn't really apply the standard tab
writing pattern (with the lyrics and structure of the song). But I
find it pretty accurate and it could be useful to some.


Intro Lick

e|--3--1--1/3----------------------------------------------------------------|
B|--------1/3----------------------------------------------------------------|
G|---------------------------------------------------------------------------|
D|---------------------------------------------------------------------------|
A|---------------------------------------------------------------------------|
E|---------------------------------------------------------------------------|


Intro (basic pattern)

e|------------------------------------|------------------------------------|
B|-3---1----4---4-------------3---1--3|-3---1----4---4-------------3---1--3|
G|-3---3----2---2----3---3----1---1--1|-3---3----2---2----3---3----1---1--1|
D|-1---1----1---1----3---3----1---1--1|-1---1----1---1----3---3----1---1--1|
A|-3---3----3---3----5---5----3---3--3|-3---3----3---3----5---5----3---3--3|
E|----------1---1----3---5----1---1--1|----------1---1----3---5----1---1--1| 


Chorus (with rythm)

e|------------------------------------|------------------------------------|
B|-3---1----4---4-------------3---1--3|-3---1----4---4-----------3-----1--3|
G|-3---3----2---2----3---3----1---1--1|-3---3----2---2----3---3--1-----1--1|
D|-1---1----1---1----3---3----1---1--1|-1---1----1---1----3---3--1-----1--1|
A|-3--------3--------5---5------------|-3--------3--------5---5------------|
E|----------1-------3-------1---------|----------1-------3-------1---------| 


C'est l'histoire d'une vieille VHS,   Sortie de nul part,   elle porte tes initiales, les miennes les nôtres,
e|----------------------------------------------------------------------------------------------------------|
B|-3---1---------------------------4---4------------------------------------------------------------3---1--3|
G|-3---3---------------------------2---2-------------------------3---3------------------------------1---1--1|
D|-1---1---------------------------1---1-------------------------3---3------------------------------1---1--1|
A|-3-------------------------------3-----------------------------5---5--------------------------------------|
E|---------------------------------1----------------------------3---------------------------------1---------| 

Quand tes souvenirs s'affaissent   Elle est ta mémoire,   pour ne pas qu'on oublie,     toi moi, les autres.
e|----------------------------------------------------------------------------------------------------------|
B|-3---1---------------------------4---4------------------------------------------------------------3---1--3|
G|-3---3---------------------------2---2-------------------------3---3------------------------------1---1--1|
D|-1---1---------------------------1---1-------------------------3---3------------------------------1---1--1|
A|-3-------------------------------3-----------------------------5---5--------------------------------------|
E|---------------------------------1----------------------------3---------------------------------1---------| 

C'est l'histoire d'une vieille VHS,   Sortie de nul part,   elle porte tes initiales, les miennes les nôtres,
e|----------------------------------------------------------------------------------------------------------|
B|-3---1---------------------------4---4------------------------------------------------------------3---1--3|
G|-3---3---------------------------2---2-------------------------3---3------------------------------1---1--1|
D|-1---1---------------------------1---1-------------------------3---3------------------------------1---1--1|
A|-3-------------------------------3-----------------------------5---5--------------------------------------|
E|---------------------------------1----------------------------3---------------------------------1---------| 

Quand tes souvenirs s'affaissent   Elle est ta mémoire,   pour ne pas qu'on oublie,     toi moi.
e|-------------------------------------------------------------------------------------------|
B|-3---1---------------------------4---4--------------------------------------------------3--|
G|-3---3---------------------------2---2-------------------------3---3--------------------1--|
D|-1---1---------------------------1---1-------------------------3---3--------------------1--|
A|-3-------------------------------3-----------------------------5---5--------------------3--|
E|---------------------------------1----------------------------3-------------------------1--| 




Verse 

e|---------------------------------------------------------------------------|
B|-3----4---------3----------------------------------------------------------|
G|-3----2----3----1----------------------------------------------------------|
D|-----------3---------------------------------------------------------------|
A|---------------------------------------------------------------------------|
E|---------------------------------------------------------------------------|


************************************

| /   slide up
| \   slide down
| h   hammer-on
| p   pull-off
| ~   vibrato
| +   harmonic
| x   Mute note
| b   Bend
| pb  Pre-bend
| br  Bend release
| pbr Pre-bend release
| brb Bend release bend

************************************
Добавлено: 26.07.2015
Вам также может быть интересно:
Другие материалы по этой песне:
  • Аккорды и текст

Страница создана 26.07.2015
http://primanota.ru/hocus-pocus/histoire-dune-vhs-chords.htm
Привет, Гость.
Предлагаем пройти революционный курс по гитаре.
Подарок от PrimaNota.Ru, забирай!