PrimaNota.ru - самый крупный в мире бесплатный архив песенных текстов, аккордов, табулатур и нот


Hoba Hoba Spirit - Sidi Bouzekri - таба, видео

Регистрация Запомнить меня
Войти через:  Facebook Google Twitter Vk Yandex Mail.ru

Hoba Hoba Spirit - Sidi Bouzekri - таба, видео

Печатать
Просмотров: 114
Уроки эстрадного вокала в Санкт-Петербурге
-------------------------------------------------------------------------------
                           SIDI BOUZEKRI - Hoba Hoba Spirit
-------------------------------------------------------------------------------
Here is Tab and chords of sidi bouzekri by hoba hoba spirit last album kalakhnikov 2013
Hope you'll like it.

Tabbed by: Jeff Riff
E-mail: Adriane.feild@gmail.com

Intro 0:00 -> 0:14 Kindir ya 7babi fi ha zman...
       Am          C
e|----0------------0--------------------|
b|----1------------1--------------------|
g|----2------------0--------------------|
d|----2------------2--------------------|  X 2
a|-----------------3--------------------|
E|--------------------------------------|
 
Chorus 0:14 -> 0:27 Anaya rebi ma3andi walii...

e|----------0---------------------------------------|
b|----------1---------------------------------------|
g|---4------2---------------------------------------|
d|---4------2---------------------------------------|
a|---2----------------------------------------------|
E|--------------------------------------------------|

Solo1 0:27 ->0:42

e|---------------------------------------------------------------------------------|
b|---------------------------------------------------------------------------------|
g|---------------------------------------------------------------------------------|
d|--------------------5-7-5-0------------------------------------------------------|
a|----7-5---5-7-7-------------7----7-5----5-----------5h7p5------------------------|
E|--5-----8----------------------5-----8----7-3-5-7----------5---------------------|

Verse1 0:42 -> 0:54  Brit l barka lyoum m3a s7abi...

     Am            C
e|----0------------0--------------------|
b|----1------------1--------------------|
g|----2------------0--------------------|  X 2
d|----2------------2--------------------|
a|-----------------3--------------------|
E|--------------------------------------|

Solo2 0:54 -> 1:07

e|---------------------------------------------------------------------------------|
b|---------------------------------------------------------------------------------|
g|---------------------------------------------------------------------------------|
d|---------------------------------------------------------------------------------|
a|--------------------------5-7----------------------5h7p5-------------------------|
E|----5-8-7-5-3-0-0-3-5-7-------5-8-7-5-3-0-0-5-7--------- 5-----------------------|

Verse2 1:07->1:21 Kindir ana ya rebi kindiir...
                 
e|-------------------------------------|
b|-------------------------------------|
g|----4-----------7--------------------|  X 2
d|----4-----------7--------------------|
a|----2-----------5--------------------|
E|-------------------------------------|

Chorus 1:21 -> 1:34 Anaya rebi ma3andi wali...

e|----------0---------------------------------------|
b|----------1---------------------------------------|
g|---4------2---------------------------------------|
d|---4------2---------------------------------------|
a|---2----------------------------------------------|
E|--------------------------------------------------|

Solo1+Solo2 1:34 ->2:01

Verse3 2:01 -> 2:14 Farcho zrabi nasbo lakhyam...

      Am          C
e|----0------------0--------------------|
b|----1------------1--------------------|
g|----2------------0--------------------|  X 2
d|----2------------2--------------------|
a|-----------------3--------------------|
E|--------------------------------------|

Chorus 2:14 -> 2:27 

e|----------0---------------------------------------|
b|----------1---------------------------------------|
g|---4------2---------------------------------------|
d|---4------2---------------------------------------|
a|---2----------------------------------------------|
E|--------------------------------------------------|

Outro1 2:31-> 2:44

e|---------------------------------------------------------------|
b|---------------------------------------------------------------|
g|--------------------------------------------------------|  X 4-|
d|---------------------------------------------------------------|
a|---7--9---7--9--10---9--7--5--7--9--7 -------------------------|
E|---5--7---5--7--8----7--5--3--5--7--5--------------------------|

Outro2 2:44->End Ya had lila......

e|-------0---0-----------------------------------|
b|-------1---1-----------------------------------|
g|---4---0---2---4-------------------------------|
d|---4---2---2---4-------------------------------| X 13 
a|---2---3-------2-------------------------------|
E|-----------------------------------------------|

h:Hummer on
p:Pull off

Enjoy ^^
Добавлено: 27.10.2013
Другие материалы по этой песне:
  • Аккорды и текст

Страница создана 27.10.2013
http://primanota.ru/hoba-hoba-spirit/sidi-bouzekri-chords.htm
Привет, Гость.
Предлагаем пройти революционный курс по гитаре.
Подарок от PrimaNota.Ru, забирай!