PrimaNota.ru - самый крупный в мире бесплатный архив песенных текстов, аккордов, табулатур и нот


Hoba Hoba Spirit - Aourioura - таба, видео

Регистрация Запомнить меня
Войти через:  Facebook Google Twitter Vk Yandex Mail.ru

Hoba Hoba Spirit - Aourioura - таба, видео

Печатать
Просмотров: 127
                           _                       
     /\                   (_)                      
    /  \   ___  _   _ _ __ _  ___  _   _ _ __ __ _ 
   / /\ \ / _ \| | | | '__| |/ _ \| | | | '__/ _' |
  / ____ \ (_) | |_| | |  | | (_) | |_| | | | (_| |  (Solo)
 /_/    \_\___/ \__,_|_|  |_|\___/ \__,_|_|  \__,_|     
                                by Hoba Hoba Spirit
                                                   
         
|----------------------------------|
|----------------------------------|
|----------------------------------|
|----------3-2-0-0-0-0-2-0---------|
|-0--0-0-0-----------------3-2--0-0|
|----------------------------------|
x2

|------------------------------|
|------------------------------|
|------------------------------|
|------------------------------|
|---0--0-2-0------------2-0-0-0|
|--------------3-3-3--3--------|


|--------------------------------------------|
|--------------------------------------------|
|--------------------------------------------|
|--------------------------------------------|
|-0-2-0----------2-0-0-0--0-2-0--------------|
|-------3-3-3--3----------------3-3-3--3-3--3|
Добавлено: 10.08.2013
Другие материалы по этой песне:
  • Аккорды и текст

Страница создана 10.08.2013
http://primanota.ru/hoba-hoba-spirit/aourioura-chords.htm
Привет, Гость.
Предлагаем пройти революционный курс по гитаре.
Подарок от PrimaNota.Ru, забирай!