PrimaNota.ru - самый крупный в мире бесплатный архив песенных текстов, аккордов, табулатур и нот


Хоуги Кармайкл - Heart And Soul - таба, видео

Регистрация Запомнить меня
Войти через:  Facebook Google Twitter Vk Yandex Mail.ru

Хоуги Кармайкл - Heart And Soul - таба, видео

Печатать
Просмотров: 546
Авторы музыки: Hoagy Carmichael
Авторы текста: Frank Loesser
This is the classic song Heart and Soul originally played on the piano, but i took some 
to figure out some chords that sound very similar, my girlfriend plays this song with me 
the time and i love it, but this is my first tab ever and i hope it works out for all of you...


By: Garrett Yoes
Tuning: Standard


e--0----------0----------1----------3------------------------------|
B--1----------1----------1----------3------------------------------|
G--0----------2----------2----------4--------strum each------------|
D--2----------2----------3----------5-----------chord--------------|
A--3----------0----------3----------5------------3 times-----------|
E--0----------0----------1----------3------------------------------|

e---8-8-8---8-7-5-7-8-10---12-12-12---12-10-8-10-12-13-15----|
B------------------------------------------------------------|
G------------------------------------------------------------|
D------------------------------------------------------------|
A------------------------------------------------------------|
E------------------------------------------------------------|


e---8---17-15-13-12-10-8---7-5-3-5-7-8-----------------------|
B------------------------------------------------------------|
G------------------------------------------------------------|
D------------------------------------------------------------|
A------------------------------------------------------------|
E------------------------------------------------------------|

Basically just repeat this in the same cycle or add a little more soloing into it...
Hopefully this gave you a good idea.
Enjoy!
Добавлено: 13.07.2012
Другие материалы по этой песне:
  • Аккорды и текст

Страница создана 13.07.2012
http://primanota.ru/hoagy-carmichael/heart-and-soul-chords.htm
Привет, Гость.
Предлагаем пройти революционный курс по гитаре.
Подарок от PrimaNota.Ru, забирай!