PrimaNota.ru - самый крупный в мире бесплатный архив песенных текстов, аккордов, табулатур и нот


Хоуги Кармайкл - Georgia On My Mind - таба, видео

Регистрация Запомнить меня
Войти через:  Facebook Google Twitter Vk Yandex Mail.ru

Хоуги Кармайкл - Georgia On My Mind - таба, видео

Печатать
Просмотров: 314
Авторы музыки: Hoagy Carmichael
Авторы текста: Stuart Gorrell
'georgia on my mind', by hoagy carmichael
tab by wim, w/ special thanks to john kean

*****************************************************
bar 29 corrected 30 July 2000 - Weed
Borje Sandquist credited as arranger 24 Oct 00 - Weed
bar 25 arpeggio corrected 25 Oct 00 - Weed
updated by wim November 2004
*****************************************************

wonderful piece arranged for classical guitar by borje 
sandquist.  very dreamy and relaxed.

tabbed for weed's Classical Guitar Tablature page 
'cause i couldn't believe it wasn't there!
thanks to john kean (his was the original tab in my 
head, had memorised years ago)

Drop-D tuning [DADGBE low to high]
4/4 time

above the tab are the | and . which represent beat counts...
play with a slight jazzy sort of swing in the beat and 
don't forget to drop that D

a ^ under a chord in the tab means to 'arpeggiate' the chord.  
an example for those not familiar with arpeggios...

------                               --------
--7---                               -----7--
--6---       is played sort of like  ----6---
--7---   just spread it out a little ---7----
--5---                               --5-----
------                               --------
  ^                                    pima


  
    |   .   |   .   |   .   |   .      |   .   |   .   |   .   |   .
||------5---------------------------|--2---0---------------------------|
||--7-------------------------------|--0-------0-----------------------|
||--6-------6-------6-------4---2---|--0-------0-------3---------------|
||--7-------7-------7-------0-------|------------------2---------------|
||--5-------5-------5---------------|--4-------4-----------------------|
||----------------------------------|------------------4-------4-------|
    ^                                  ^


   |   .   |   .   |   .   |   .      |   .   |   .   |   .   |   .
|----------2-------7---------------|----------------------------------|
|--3---------------7-------7-------|--5---------------3-------3---5---|
|--2---------------7-----------7---|--4---------------3-------3-------|
|--4-------------------------------|----------------------------------|
|--2-------2-------0-------0-------|----------------------------------|
|----------------------------------|--6-------6---5-----------5-------|
                   ^ 


   |   .   |   .   |   .   |   .      |   .   |   .   |   .   |   .
|------------------9-----------7---|--3-----------7---2-------0-------|
|--7------10-------7---------------|--3---------------2-------2-------|
|--7-------7-------7---------------|--4---------------0-------0-------|
|----------------------------------|----------------------------------|
|----------0-----------------------|------------------0-------0-------|
|--0---------------9-------9-------|--2-------2-----------------------|
                   ^ 


   |   .   |   .   |   .   |   .      |   .   |   .   |   .   |   .
|--5-------------------------------|--2---0---------------2-------0---||
|--2----------2--------0---2---3---|--3---0---3---0-------2-----------||
|--2------------2--1-------1-------|--0-------0-------3---------------||
|------------------0-------0-------|----------------------------------||
|----------------------------------|------------------0-------0-------||
|--4-------4-------3-------3-------|--2-------2-----------------------||
   ^                                  ^ 


    |   .   |   .   |   .   |   .      |   .   |   .   |   .   |   .
||----------------------5-----------|----------2-0---------------------|
||--3---------------7---------------|--0-------------------------------|
||--2---------------6---------------|--0---3-------------------4---3---|
||--4---------------7---------------|----------------------2-----------|
||------------------5-------5-------|--4-------4-----------------------|
||--0-------0-----------------------|------------------4-------4-------|
                    ^ 


   |   .   |   .   |   .   |   .      |   .   |   .   |   .   |   .
|--------------2---7---------------|----------------------------------|
|--3---------------7----------7----|--5-----------------------3---5---|
|--2---------------7------------7--|--4------------4--3-------3-------|
|--4-------------------------------|--------------------------3-------|
|--2-------2-------0-------0-------|-------------7--------------------|
|----------------------------------|--6-------6-------5-------5-------|
                                                              ^ 


   |   .   |   .   |   .   |   .      |   .   |   .   |   .   |   .
|------------------9-----------7---|--3------------3--2-----------2---|
|--7------10-------7---------------|--3----------0----2---2-------2---|
|--7-------7-------7---------------|--4-------0-------2---2-------0---|
|----------------------------------|----------------------------------|
|----------0-----------------------|------------------0-------0-------|
|--0---------------9-------9-------|--2-------2-----------------------|
                   ^ 


   |   .   |   .   |   .   |   .      |   .   |   .   |   .   |   .
|----------------------------------|----------------------------------||
|--3-------------------3-----------|----------------------------------||
|--2-----------2---3-------5---3---|--2---------------4-------3-------||
|--4---------------0-------0-------|--4---------------2---------------||
|----------------------------------|----------0-------4---------------||
|--0-------0-------5-------5-------|--0---------------4-------4-------||
                                                      ^ 


    |   .   |   .   |   .   |   .      |   .   |   .   |   .   |   .
||--------------0-----------2-------|----------------------------------|
||------3-------0-----------0-------|--3-----------3-----------3-------|
||--4---4-------0-----------0-------|--4---4-------4-----------4-------|
||--4-------------------------------|--4---4-------2-----------2-------|
||--2-------2-----------------------|--2-------0-----------------------|
||------------------2-------2-------|------------------5-------5-------|
                                       ^ 


   |   .   |   .   |   .   |   .      |   .   |   .   |   .   |   .
|------------------0-----------2---|--5---2-----------4---------------|
|------3-----------0---------------|--3---3-----------3---------------|
|--4---4-----------0---------------|--2---2-----------4---------------|
|----------------------------------|----------------------------------|
|--2-------2-----------------------|-------------------------------0--|
|------------------2-------2-------|--0-------0-------2-------2--4----|
                                      ^ 


   |   .   |   .   |   .   |   .      |   .   |   .   |   .   |   .
|------------------0-------2-------|------7-------9-----------7-------|
|--------------3---2-------2-------|--10----------6-----------6-------|
|--4-------------------------------|--7-----------6-----------6-------|
|--4-------------------------------|--7-----------------------6-------|
|--2-------2-------1-------1-------|--0-------0-----------------------|
|----------------------------------|------------------6---------------|
                                      ^ 


   |   .   |   .   |   .   |   .      |   .   |   .   |   .   |   .
|--5----------5-5--5---3-------2---|--3-------------3-2p0-------------||
|--5---------------4-------4-------|--3-----------3---2---2-0---------||
|--6---------------2-------2-------|--4---------0-----0-------2-0-----||
|----------------------------------|------------------------------2-3-||
|------------------2-------2-------|------------------0---------------||
|--4-------4-----------------------|--2-------2-----------------------||
                   ^                                  ^ 


    |   .   |   .   |   .   |   .      |   .   |   .   |   .   |   .
||------------------7---------------|----------0-------2---------------|
||--------------5-----------------0-|--------------------5-------------|
||------2-------6-----------6-------|--0-------------3-----3-----------|
||--3/4---------7-------------7-----|--------------------------2---5---|
||----------0---5-----------5-------|--4-------4-----------------------|
||--0-------------------------------|------------------4-------4-------|
                ^ 


   |   .   |   .   |   .   |   .      |   .   |   .   |   .   |   .
|------------------------7---------|--0-------------------------------|
|----------3---5---5/7-----7-----7-|----0---------0-------3-5p3-------|
|------4---2-------------------7---|------7-----------3h5-------5-3---|
|--4-------------------------------|----------------------------------|
|--2-------2-------0-------0-------|----------------------------------|
|----------------------------------|--6-------6-------5-------5-------|


   |   .   |   .   |   .   |   .      |   .   |   .   |   .   |   .
|------------------7---8---7-------|--0---------5---3-2p0-------------|
|------------7-10--7-------7---0---|------------------2---2-0---------|
|--2-------------------------------|--------------------------2-0-----|
|--4-------------------------------|------------------------------2-3/|
|----------0-----------------------|------------------0-------0-----0-|
|--0---------------9-------9-------|--2-------2-----------------------|



   |   .   |   .   |   .   |   .      |   .   |   .   |   .   |   .
|--------------------------0-------|----------------------------------||
|----------0---------3-3-----3-----|------0---3-------5-5-------------||
|----2-2-----2---3/4-----4-----4---|----2---2---4-2---4-4---3---------||
|-/4-----4-----4-----------------3-|-/4---------------5---------------||
|--------------------------------0-|------------------4---------------||
|--0-------0-------5-------5-------|--0-------0---------------4-------||

tricky bit at first: you've got to play the bass WHEN you legato slide 
up to 4 (i.e. hit that D string at same instant as the slide)


    |   .   |   .   |   .   |   .      |   .   |   .   |   .   |   .
||------------------------3-2-------|----------------------------------|
||-------------2-3--5-------3-----5-|--3----------2-0--3-----5-2-----3-|
||--4---------------4---4-----------|--2---------------4-------3-------|
||--4---------------------------4---|--4---------------0---------------|
||--2-------2-------2-------2-------|--2-------0-----------------------|
||----------------------------------|------------------5-------4-------|
                                                       ^ 


   |   .   |   .   |   .   |   .      |   .   |   .   |   .   |   .
|----------------------0-2---3-2-0-|--2-----0-2-5p2---4---------------|
|--------------3---2h3-------------|------3---------3---3-------2-----|
|--4-----------4---0---------------|----2-----------------4-----------|
|--4-----------4-------------------|----------0-------2---------------|
|--2-------2-----------------------|----------------------------------|
|------------------2-------2-------|--0-----------------------2-------|



   |   .   |   .   |   .   |   .      |   .   |    .   |   .   |   .
|------------------0-----0-2---0---|--5---------0---10-9---7---5---4---|
|--3----------2-3--2---3---2-----7-|--7-----0-----7----6-------6-------|
|--2-------------------------------|--7-------7--------6-------4-------|
|--4-------------------------------|-----------------------------------|
|--2-------2-------1-------1-------|--0-------0----------------4-------|
|----------------------------------|-------------------6---------------|
                                      ^ 


   |   .   |   .   |   .   |   .      |   .   |   .   |   .   |   .
|--5------------8--7---5---3---2---|--3----------6----5-----2p0-------||
|--2----------7----7-------4-------|--3---------------2---------2-----||
|--2---------------5-------2-------|--4---------------0-----------2-0-||
|----------------------------------|--2-------------------------------||
|----------0-------6-------2-------|------------------0---------------||
|--4-------------------------------|----------5-----------------------||
                                                      ^ 


    |   .   |   .   |   .   |   .      |   .   |   .   |   .   |   .
||----------------------5-----------|--2---0---------------------------|
||------------------7---------------|--0-------------------------------|
||------2-----------6----------6----|--0-----------4---3---------------|
||--3/4-------------7------------7--|------------------2---------------|
||------------------5-------5-------|--4-------4-----------------------|
||--0-------0-----------------------|------------------4-------4-------|
                    ^                  ^ 


   |   .   |   .   |   .   |   .      |   .   |   .   |   .   |   .
|----------2-------7----------7-10-|-------------7---------------6----|
|--3---------------7-------7-------|--5------------0--3---------------|
|--2---------------7---7-----------|--4---------------3------------3--|
|--4-------------------------------|----------------------------------|
|--2-------2-------0-------0-------|----------------------------------|
|----------------------------------|--6-------6-------5-------0-------|
                   ^ 


   |   .   |   .   |   .   |   .      |   .   |   .   |   .   |   .
|----------5-------9-------7-------|---------10p7-------------5-------|
|----------3-------7---------------|--8-----------8---7-------5-------|
|--2-------2-------8---------------|--7-------------7-7-------6-------|
|--4-------------------------------|--9-------------------------------|
|----------0-----------------------|--7-------------------------------|
|--0---------------9---------------|------------------8-----7---------|
                   ^                                 slow down here...


   |   .   |   .   |   .   |   .      |   .   |   .   |   .   |   .
|-10-------------------------------|------------------0---------------||
|--7-------------------3-----2-3---|------------------5---------------||
|--7-----------2---3-5-----2-------|--0---3---2---0---6---------------||
|--7---------------0-------0-------|--0-------0-------4---------------||
|--9-------0-----------------------|------------------0---------------||
|--0---------------5-------4-------|--2-------1-------0---------------||
   ^                                                  ^ 
                                    nice and sloooooww....   hmmmm


have a suggestion / correction? please email 
wimiam at yahoo dot com


***************************************************************
***************************************************************

[for reference, here's John Kean's original tab,
which is very similar to the one above - Weed]

Georgia On My Mind  - Hoagy Carmichael, arr. Sollscher
~~~~~~~~~~~~~~~~~~
Transcribed by John Kean (keanj@agresearch.cri.nz).

Drop-D tuning.
4/4 time, with swing.

    ,   .   ,   .   ,   .   ,   .      ,   .   ,   .   ,   .   ,   .
||------5---------------------------|----------------------------------|
||--7-------------------------------|--7---5---------------------------|
||--6-------6-------6---------------|--4---------------3---------------|
||--7-------7-------7-------9---7---|--5---------------2---------------|
||--5-------5-------5-------5-------|--4-------4-----------------------|
||----------------------------------|------------------4-------4-------|
   arp


   ,   .   ,   .   ,   .   ,   .      ,   .   ,   .   ,   .   ,   .
|----------2-------7---------------|----------------------------------|
|--3---------------7-------7-------|--5---------------3-------3---5---|
|--4---------------7-----------7---|--4---------------3-------3-------|
|--4-------------------------------|----------------------------------|
|--2-------2-------0-------0-------|----------------------------------|
|----------------------------------|--6-------6---5-----------5-------|
                  arp


   ,   .   ,   .   ,   .   ,   .      ,   .   ,   .   ,   .   ,   .
|------------------9-----------7---|--3-----------7---2-------0-------|
|--7------10-------7---------------|--0---------------2-------2-------|
|--7-------7-------7---------------|--0---------------0-------0-------|
|----------------------------------|----------------------------------|
|----------0-----------------------|------------------0-------0-------|
|--0---------------9-------9-------|--2-------2-----------------------|
                  arp


   ,   .   ,   .   ,   .   ,   .      ,   .   ,   .   ,   .   ,   .
|--5-------------------------------|--2---0---------------2-------0---||
|--2----------2--------0---2---3---|--0---0---2---0-------2-----------||
|--2------------2--1-------1-------|--0-------0-------3---------------||
|------------------0-------0-------|----------------------------------||
|----------------------------------|------------------0-------0-------||
|--4-------4-------3-------3-------|--2-------2-----------------------||
  arp                                arp


    ,   .   ,   .   ,   .   ,   .      ,   .   ,   .   ,   .   ,   .
||----------------------5-----------|----------------------------------|
||------------------7---------------|----------7-5---------------------|
||--2---------------6---------------|--4---4-----------3-------4---3---|
||--4---------------7---------------|--5---------------2---4-----------|
||------------------5-------5-------|--4-------4-----------------------|
||--0-------0-----------------------|------------------4-------4-------|
                   arp


   ,   .   ,   .   ,   .   ,   .      ,   .   ,   .   ,   .   ,   .
|--------------2---7---------------|----------------------------------|
|--3---------------7----------7----|--5-----------------------3---5---|
|--4---------------7------------7--|--4------------4--3-------3-------|
|--4-------------------------------|--------------------------3-------|
|--2-------2-------0-------0-------|-------------7--------------------|
|----------------------------------|--6-------6-------5-------5-------|
                                                             arp


   ,   .   ,   .   ,   .   ,   .      ,   .   ,   .   ,   .   ,   .
|------------------9-----------7---|--3------------3--2-----------2---|
|--7------10-------7---------------|--0----------0----2---2-------2---|
|--7-------7-------7---------------|--0-------0-------2---2-------0---|
|----------------------------------|----------------------------------|
|----------0-----------------------|------------------0-------0-------|
|--0---------------9-------9-------|--2-------2-----------------------|
                  arp


   ,   .   ,   .   ,   .   ,   .      ,   .   ,   .   ,   .   ,   .
|----------------------------------|----------------------------------||
|--3-------------------3-----------|----------------------------------||
|--2-----------2---3-------5---3---|--2---------------4-------3-------||
|--4---------------0-------0-------|--4---------------2---------------||
|----------------------------------|----------0-------4---------------||
|--0-------0-------5-------5-------|--0---------------4-------4-------||
                                                     arp


    ,   .   ,   .   ,   .   ,   .      ,   .   ,   .   ,   .   ,   .
||--------------------------2-------|----------------------------------|
||------3-------5-------------------|--3-----------3-------------------|
||--4---4-------4-------------------|--4---4-------4-------------------|
||--4-----------5-------------------|--4---4-------2-------------------|
||--2-------2-----------------------|--2-------0-----------------------|
||------------------2-------2-------|------------------5-------5-------|
                                      arp


   ,   .   ,   .   ,   .   ,   .      ,   .   ,   .   ,   .   ,   .
|------------------------------2---|--5---2-----------4---------------|
|------3-----------5---------------|--3---3-----------3---------------|
|--4---4-----------4---------------|--2---2-----------4---------------|
|--4---------------5---------------|----------------------------------|
|--2-------2-----------------------|-------------------------------0--|
|------------------2-------2-------|--0-------0-------2-------2--4----|
                                     arp


   ,   .   ,   .   ,   .   ,   .      ,   .   ,   .   ,   .   ,   .
|------------------0-------2-------|--5---7-------9-----------7-------|
|--------------3---2-------2-------|--7-----------6-----------6-------|
|--4-------------------------------|--7-----------6-----------6-------|
|--4-------------------------------|----------------------------------|
|--2-------2-------1-------1-------|--0-------0---------------4-------|
|----------------------------------|------------------6---------------|
                                     arp


   ,   .   ,   .   ,   .   ,   .      ,   .   ,   .   ,   .   ,   .
|--5----------5-5--5---3-------2---|--3-------------3-2-0-------------||
|--2---------------4-------4-------|--0-----------0---2---2-0---------||
|--2---------------2-------2-------|--0---------0-----0-------2-0-----||
|----------------------------------|------------------------------2-3-||
|------------------2-------2-------|------------------0---------------||
|--4-------4-----------------------|--2-------2-----------------------||
                  arp                                arp


    ,   .   ,   .   ,   .   ,   .      ,   .   ,   .   ,   .   ,   .
||------------------7---------------|------------------2-0-------------|
||--------------5-------------------|----------------2-----------------|
||--------------6-----------6-----4-|----------------------4-------0---|
||--3h4/7-------7-------------7-----|--5-----------------------2-------|
||----------0---5-----------5-------|--4-------4-----------------------|
||--0-------------------------------|------------------4-------4-------|
               arp


   ,   .   ,   .   ,   .   ,   .      ,   .   ,   .   ,   .   ,   .
|------------------------7---------|----------------------------------|
|----------2---3---3/7-----7-----7-|--5p0-----------------3-5-3-------|
|------4-----------------------7---|------7-------4---3-5-------5-3---|
|--4-------------------------------|----------------------------------|
|--2-------2-------0-------0-------|----------------------------------|
|----------------------------------|--6-------6-------5-------5-------|



   ,   .   ,   .   ,   .   ,   .      ,   .   ,   .   ,   .   ,   .
|----------------------------------|--0---------5---3-2-0-------------|
|--------------10-12--13--12---0---|------------------2---2-0---------|
|--2---------11---11------11-------|--0-----------------------2-0-----|
|----------------------------------|------------------------------2-3-|
|----------0-----------------------|------------------0-------0-------|
|--0---------------9-------9-------|--2-------2---------------------0-|



   ,   .   ,   .   ,   .   ,   .      ,   .   ,   .   ,   .   ,   .
|--------------------------0-------|----------------------------------||
|----------0---------3-3-----3-----|------0---3-0---------------------||
|----2-2-----2---3/4-----4-----4---|----2---2-----2---4-4---3---------||
|-/4-----4-----4---0-------0-----3-|-/4---------------4-------2-------||
|--5-------5-----------------------|--5-------------------------------||
|----------0-----4/5-------5-----0-|----------0-------4-------4-------||



    ,   .   ,   .   ,   .   ,   .      ,   .   ,   .   ,   .   ,   .
||------------------------3---2-----|----------------------------------|
||-------------2-3--5-------------5-|--3----------2-0--3-----5-2-----3-|
||--4-------------------4---2-------|------------------4-------3-------|
||--4---------------5-----------5---|--4---------------0---------------|
||--2-------2-------2-------2-------|--2-------0-----------------------|
||----------------------------------|------------------5-------4-------|
                                                      arp


   ,   .   ,   .   ,   .   ,   .      ,   .   ,   .   ,   .   ,   .
|----------------------0-2---3-2-0-|--2-----0---7-----4---------------|
|--------------3---2-3-------------|------3---7---7-----3-------2-----|
|--4-----------4---0---------------|----2-----------7-----4-----------|
|--4-----------4---2---------------|----------0-------2---------------|
|--2-------2-----------------------|----------------------------------|
|------------------2-------2-------|--0-----------------------2-------|



   ,   .   ,   .   ,   .   ,   .      ,   .   ,    .   ,   .   ,   .
|------------------0-----0-2-------|--5-------------10-9---7---5---4---|
|--3----------2-3--2---3-------5h7-|--7---------7-10---6-------6-------|
|--4-------------------------------|--7-------7--------6-------4-------|
|--4-------------------------------|--------7--------------------------|
|--2-------2-------1-------1-------|--0-------0----------------4-------|
|----------------------------------|-------------------6---------------|
                                     arp


   ,   .   ,   .   ,   .   ,   .      ,   .   ,   .   ,   .   ,   .
|--5------------8--7---5---3---2---|--3----------6----5---------------||
|--2----------7----7-------4-------|--0---------------5-----7p5-------||
|--2---------------5-------2-------|--0---------------6---------6---0-||
|----------------------------------|--2---------------5-----------7---||
|----------0-------6-------2-------|------------------0---------------||
|--4-------------------------------|----------5-----------------------||
                                                     arp


    ,   .   ,   .   ,   .   ,   .      ,   .   ,   .   ,   .   ,   .
||----------------------5-----------|----------------------------------|
||------------------7---------------|--7---5---------------------------|
||------------------6----------6----|--4-----------4---3---------------|
||--3h4/7-----------7------------7--|--5---------------2---------------|
||------------------5-------5-------|--4-------4-----------------------|
||--0-------0-----------------------|------------------4-------4-------|
                   arp                arp


   ,   .   ,   .   ,   .   ,   .      ,   .   ,   .   ,   .   ,   .
|----------2-------7----------7-10-|-------------7---------------6----|
|--3---------------7-------7-------|--5---------------3---------------|
|--4---------------7---7-----------|--4------------4--3------------3--|
|--4-------------------------------|----------------------------------|
|--2-------2-------0-------0-------|----------------------------------|
|----------------------------------|--6-------6-------5-------0-------|
                  arp


   ,   .   ,   .   ,   .   ,   .      ,   .   ,   .   ,   .   ,   .
|----------5-------9-------7-------|--3------10-7-----2-------5-------|
|----------7-------7---------------|--0-----------8---2-------6-------|
|--2-------7-------7---------------|--0-------------7-0-------6-------|
|--4-------------------------------|--------------------------7-------|
|----------0-----------------------|------------------2-----0---------|
|--0---------------9---------------|--2-------------------------------|
                  arp                                 rall...........


   ,   .   ,   .   ,   .   ,   .      ,   .   ,   .   ,   .   ,   .
|-10-------------------------------|------------------0---------------||
|--7-------------------3-----2-3---|------------------5---------------||
|--7-----------2---3-5-----2-------|--0---3---2---0---6---------------||
|--7---------------0-------0-------|--0-------0-------4---------------||
|--9-------0-----------------------|------------------0---------------||
|--0---------------5-------4-------|--2-------1-------0---------------||
  arp                                                arp

Добавлено: 02.04.2012
Другие материалы по этой песне:

Страница создана 26.03.2012
http://primanota.ru/hoagy-carmichael/georgia-on-my-mind-chords.htm
Привет, Гость.
Предлагаем пройти революционный курс по гитаре.
Подарок от PrimaNota.Ru, забирай!