PrimaNota.ru - самый крупный в мире бесплатный архив песенных текстов, аккордов, табулатур и нот


Hj Zelley - Heavenly Sunlight - таба, видео

Регистрация Запомнить меня
Войти через:  Facebook Google Twitter Vk Yandex Mail.ru

Hj Zelley - Heavenly Sunlight - таба, видео

Печатать
Просмотров: 108
-------------------------------------------------------------------------------
                             heavenly sunlight  - H.J. Zelley
-------------------------------------------------------------------------------
Tabbed by:
E-mail:
tuning: E-A-D-G-B-e
key of F

e|------------------------------------------------------------------------------|
B|-----------------------------------1--1-3---1---------------------------------|
G|---------------------2---0-----0----------------2----------2------0---------0-|
D|---0-----2--3---3----3------3--2---2--3-3---3---3----3-----3------3----3----2-|
A|-3--------------3--------3--3------------------------3------------------------|
E|------------------------------------------------------------------------------|
  walking in sunlight all of my journey over the mountains through the deep vale 
e|----------------------------------------------------------------------------|
B|------------------------------------1----1--3---1---------------------------|
G|---------------------2--0-------0------------------2--------0-2----0--------|
D|---0---2----3----3---3------3---2---2----3--3---3--3---3----2-3----2---3----|
A|-3---------------3------3---3--------------------------3---------------3----|
E|----------------------------------------------------------------------------|
  Jesus has said "I'll never forsake thee promise divine that never can fail
e|----------------------------------------------------------------------------|
B|-------1--1--1--3----------1--3---1--------1--1----1----1-------------------|
G|-------------------3-----3------------2----------------------2--2--0------0-|
D|-------3--3--3--3--0-----3-3--3---3---3----3--3----3----3----3--3--3--3---2-|
A|----------------------------------------------------------------------------|
E|----------------------------------------------------------------------------|
chorus: heavenly sunlight heavenly sunlight flooding my soul with glory divine
e|---------------------------------------------------------------------------|
B|-----------------------1---1---3---1---------------------------------------|
G|-----------2--0-----0------------------2-------0-2---0---------------------|
D|--0-3-3-3--3-----3--2--2---3---3---3---3--3----2-3---2---3-----------------|
A|3-------3-----3--3------------------------3--------------3-----------------|
E|---------------------------------------------------------------------------|
  hallelujah i am rejoicing singing His praises Jesus is mine



************************************

| /   slide up
| \   slide down
| h   hammer-on
| p   pull-off
| ~   vibrato
| +   harmonic
| x   Mute note
| b   Bend
| pb  Pre-bend
| br  Bend release
| pbr Pre-bend release
| brb Bend release bend

************************************
Добавлено: 27.06.2016
Другие материалы по этой песне:
  • Аккорды и текст

Страница создана 27.06.2016
http://primanota.ru/hj-zelley/heavenly-sunlight-chords.htm
Привет, Гость.
Предлагаем пройти революционный курс по гитаре.
Подарок от PrimaNota.Ru, забирай!