PrimaNota.ru - самый крупный в мире бесплатный архив песенных текстов, аккордов, табулатур и нот


Hizaki Grace Project - Mizerable - таба, видео

Регистрация Запомнить меня
Войти через:  Facebook Google Twitter Vk Yandex Mail.ru

Hizaki Grace Project - Mizerable - таба, видео

Печатать
Просмотров: 134
Track 1
     E  E   E  E  Q    E  E   
E||--0-----------------------|
B||-----1h--2--4--5----2--4--|
G||--------------------------|
D||--------------------------|
A||--------------------------|
E||--------------------------|


  E   E  Q     E   E  E    E   
------------------------------|
--5h--7--9----10p--9--7--7g9--|
------------------------------|
------------------------------|
------------------------------|
------------------------------|


  Q    E    E  E  Q.        E  E  E  E  Q    E  E   
-------8br--L--4--4------|-----7-------------------|
--L----------------------|--5-----9--7--5----7--9--|
-------------------------|-------------------------|
-------------------------|-------------------------|
-------------------------|-------------------------|
-------------------------|-------------------------|


                                      G#5           
  E  E  Q    E  E  E  E     Q    Q    E   E  E  E   
-------------------------|-------------------------|
--7--5--4----5--7--5--4--|--2----1-----------------|
-------------------------|------------6------5-----|
-------------------------|------------6------5-----|
-------------------------|------------4------3-----|
-------------------------|------------4------3-----|


  E  E  H.                             
---------------------|---------------||
---------------------|---------------||
--6------------------|---------------||
--6------------------|---------------||
--4------------------|---------------||
--4------------------|---------------||




Duration Legend
---------------
W - whole
H - half
Q - quarter
E - 8th
S - 16th
T - 32nd
X - 64th
. - note dotted
|-n-|  - n-tuplets


Tablature Legend
----------------
L - tied note
x - dead note
g - grace note
(n) - ghost note
> - accentuded note
NH - natural harmonic
AH - artificial harmonic
TH - tapped harmonic
SH - semi harmonic
PH - pitch harmonic
h - hammer on
p - pull off
b - bend
br - bendRelease
pb - preBend
pbr - preBendRelease
brb - bendReleaseBend
\n/ - tremolo bar dip
\n - tremolo bar dive
-/n - tremolo bar Release up
/n\ - tremolo bar inverted dip
/n - tremolo bar return
-\n - tremolo bar Release down
S - shift slide
s - legato slide
/ -  slide into from below or out of upwards
\ -  slide into from above or out of downwards
~ - vibrato
W - wide vibrato
tr - trill
TP - tremolo picking
T - tapping
S - slap
P - pop
< - fade in
^ - brush up
Добавлено: 24.04.2012
Другие материалы по этой песне:

Страница создана 27.03.2012
http://primanota.ru/hizaki-grace-project/mizerable-chords.htm
Привет, Гость.
Предлагаем пройти революционный курс по гитаре.
Подарок от PrimaNota.Ru, забирай!