PrimaNota.ru - самый крупный в мире бесплатный архив песенных текстов, аккордов, табулатур и нот


Hizaki Grace Project - Lunar Eclipse - таба, видео

Регистрация Запомнить меня
Войти через:  Facebook Google Twitter Vk Yandex Mail.ru

Hizaki Grace Project - Lunar Eclipse - таба, видео

Печатать
Просмотров: 117
-------------------------------------------------------------------------------
                             Lunar Eclipse - HIZAKI grace project
-------------------------------------------------------------------------------


this is my first attempt at a tab please be kind... lmao any feedback you can give me 
be great id like to get good at this one day

i didn't do the whole song because i thought id let everyone check it out first and we 
need to contribute to get hizaki for all the aussies out there!!

alsoo... i only did this by ear it may be off a bit somewhere

visit their official website at: http://www.artist-society.com/hizaki/index.html


Tabbed by: Smitty_bang
Email: Smitty_bang@hotmail.com

Tuning: EADGBE

e|---------------------------------------------------------------------------|
B|----------------------10/--12----------12/--13~----15--13--12~~------------|
G|-------9~~----11--12------------12~~---------------------------------------|
D|----9----------------------------------------------------------------------|
A|---------------------------------------------------------------------------|
E|---------------------------------------------------------------------------|

e|---------------------------------------------------------------------------|
B|---10~--12--10--8~~---10--8--7/--4--5~~------------------------------------|
G|---------------------------------------------------------------------------|
D|---------------------------------------------------------------------------|
A|---------------------------------------------------------------------------|
E|---------------------------------------------------------------------------|

e|---------------------------------------------------------------------------|
B|-------------------10--10/--12~~------12/--13~~----15--13--12~~------------|
G|------9~~--11--12-----------------12---------------------------------------|
D|---9-----------------------------------------------------------------------|
A|---------------------------------------------------------------------------|
E|---------------------------------------------------------------------------|

e|---------------------------------------------------------------------------|
B|---10~-----15-13-12-10-8~~---13-12-10-8-7~--7/4-4/5~-----------------------|
G|---------------------------------------------------------------------------|
D|---------------------------------------------------------------------------|
A|---------------------------------------------------------------------------|
E|---------------------------------------------------------------------------|

e|---------------------------------------------------------------------------|
B|-----------------------------------------------------15--13--12------------|
G|------9----11--12--11--9-----------15--13---11--13---------------14--12----|
D|---9----------------------12--10-------------------------------------------|
A|---------------------------------------------------------------------------|
E|---------------------------------------------------------------------------|

e|---------------------------------------------------------------------------|
B|-------12--------12--13-----13--13-12-----------12----12--12---------------|
G|---14--------14-------------------------14--12----------------14--12--11---|
D|---------------------------------------------------------------------------|
A|---------------------------------------------------------------------------|
E|---------------------------------------------------------------------------|

e|---------------------------------------------------------------------------|
B|---------------------------------------------------------------------------|
G|--14--12--12p11----12--9~~~------------------------------------------------|
D|---------------------------------------------------------------------------|
A|---------------------------------------------------------------------------|
E|---------------------------------------------------------------------------|

e|---------------------------------------------------------------------------|
B|---------------------------------------------------------------------------|
G|---------------------------------------------------------------------------|
D|---------------------------------------------------------------------------|
A|---------------------------------------------------------------------------|
E|---------------------------------------------------------------------------|


| /  slide up
| \  slide down
| h  hammer-on
| p  pull-off
| ~  vibrato
| +  harmonic
| x  Mute note
===============================================================================
Добавлено: 16.07.2012
Другие материалы по этой песне:
  • Аккорды и текст

Страница создана 16.07.2012
http://primanota.ru/hizaki-grace-project/lunar-eclipse-chords.htm
Привет, Гость.
Предлагаем пройти революционный курс по гитаре.
Подарок от PrimaNota.Ru, забирай!