PrimaNota.ru - самый крупный в мире бесплатный архив песенных текстов, аккордов, табулатур и нот


Hivi - Orang Ke-3 - таба, видео

Регистрация Запомнить меня
Войти через:  Facebook Google Twitter Vk Yandex Mail.ru

Hivi - Orang Ke-3 - таба, видео

Печатать
Просмотров: 38
-------------------------------------------------------------------------------
                             Orang Ke-3 - Hivi
-------------------------------------------------------------------------------
Tabbed by: Edwin 'Hatbox' Lokyta
E-mail: edwinlokyta@gmail.com

Tuning:Standard

Intro :

e|-------------------------------------12-11---------------------------------|
B|--9--10/12--12-12-12-12----12h14-12--------12-12-12-12-12----12h14-12------|
G|------------------------13--------------------------------13----------13-11|
D|---------------------------------------------------------------------------|
A|---------------------------------------------------------------------------|
E|---------------------------------------------------------------------------|

e|---------------------------------------------------------------------------|
B|--------------------------------------10-----------------------------------|
G|9----11h13--13--11---9------9--9h11----------------------------------------|
D|--11--------------------11-------------------------------------------------|
A|---------------------------------------------------------------------------|
E|---------------------------------------------------------------------------|

Verse :

e|--------2--------2--------2--------5-4-2-0---------------------------------|
B|-----5--------5--------5--------5------------------------------------------|
G|--4--------4--------4--------4---------------------------------------------|
D|---------------------------------------------------------------------------|
A|---------------------------------------------------------------------------|
E|---------------------------------------------------------------------------|

e|--------2--------2--------2--------7---------------------------------------|
B|-----5--------5--------5--------5------------------------------------------|
G|--4--------4--------4--------4---------------------------------------------|
D|---------------------------------------------------------------------------|
A|---------------------------------------------------------------------------|
E|---------------------------------------------------------------------------|

Solo :

e|---------------------------------------------------------------------------|
B|-------------------------------12---------------9--9h10--9--10/12----------|
G|---------------9h11---9h11/13------13\11--9--11----------------------------|
D|---------------------------------------------------------------------------|
A|--7--7--9--11--------------------------------------------------------------|
E|---------------------------------------------------------------------------|

e|------------11-12-----12/14--12-------------12-----------------------------|
B|-----12/14--------12-------------9h10-9h10---------------------------------|
G|--9------------------------------------------------------------------------|
D|---------------------------------------------------------------------------|
A|---------------------------------------------------------------------------|
E|---------------------------------------------------------------------------|

e|-------12-------11------9-----7--------------------------------------------|
B|---------------------------------------------------------------------------|
G|--11/13----13\11----11\9---9\8---------------------------------------------|
D|---------------------------------------------------------------------------|
A|---------------------------------------------------------------------------|
E|---------------------------------------------------------------------------|

Bridge :

Namun tiba-tiba*
e|-4--5--5/7--------------|--12/14--12---------------------------------------|
B|------------7--6--------|------------12/14--12-----------------------------|
G|-1--2--2/4--------------|--9 /11--9----------------------------------------|
D|------------4--3--------|------------9 /11--9------------------------------|
A|------------------------|--------------------------------------------------|
E|------------------------|--------------------------------------------------|

Verse :

e|--------2--------2--------2--------5-4-2-0---------------------------------|
B|-----5--------5--------5--------5------------------------------------------|
G|--4--------4--------4--------4---------------------------------------------|
D|---------------------------------------------------------------------------|
A|---------------------------------------------------------------------------|
E|---------------------------------------------------------------------------|

e|--------2--------2--------2--------7---------------------------------------|
B|-----5--------5--------5--------5------------------------------------------|
G|--4--------4--------4--------4---------------------------------------------|
D|---------------------------------------------------------------------------|
A|---------------------------------------------------------------------------|
E|---------------------------------------------------------------------------|

e|--------0---------0---------7----------------------------------------------|
B|-----0---------4---------0-------------------------------------------------|
G|--2---------4---------6----------------------------------------------------|
D|---------------------------------------------------------------------------|
A|---------------------------------------------------------------------------|
E|---------------------------------------------------------------------------|

Outro :

e|--------2--------2--------2--------5-4-2-0---------------------------------|
B|-----5--------5--------5--------5------------------------------------------|
G|--4--------4--------4--------4---------------------------------------------|
D|---------------------------------------------------------------------------|
A|---------------------------------------------------------------------------|
E|---------------------------------------------------------------------------|

e|--------2--------2--------2--------7-----------------|-+12-------+7--------|
B|-----5--------5--------5--------5--------------------|------+12------------|
G|--4--------4--------4--------4-----------------------|---------------------|
D|-----------------------------------------------------|---------------------|
A|-----------------------------------------------------|---------------------|
E|-----------------------------------------------------|---------------------|

************************************

| /   slide up
| \   slide down
| h   hammer-on
| p   pull-off
| ~   vibrato
| +   harmonic
| x   Mute note
| b   Bend
| pb  Pre-bend
| br  Bend release
| pbr Pre-bend release
| brb Bend release bend

************************************
Добавлено: 28.03.2016
Другие материалы по этой песне:
  • Аккорды и текст

Страница создана 28.03.2016
http://primanota.ru/hivi/orang-ke-3-2-chords.htm
Привет, Гость.
Предлагаем пройти революционный курс по гитаре.
Подарок от PrimaNota.Ru, забирай!