PrimaNota.ru - самый крупный в мире бесплатный архив песенных текстов, аккордов, табулатур и нот


Hives - Two Kinds Of Trouble - таба, видео

Регистрация Запомнить меня
Войти через:  Facebook Google Twitter Vk Yandex Mail.ru

Hives - Two Kinds Of Trouble - таба, видео

Печатать
Просмотров: 89
The Hives - Two Kinds Of Trouble
Tablatura creditada a M. Costa (muzão) e digitalizada por R. Botan
CHORDS

e|------VERSE--------------------BRIDGE----------------------------|
B|-----------------------------------------------------------------|
G|------5-------7--------------------------------------------------|
D|--7---5---3---7----------3-(5X)-7-(5X)-5-(5X)-10-(5X)-3--7--5--5-|
A|--7---3---3---5----------3------7------5------10------3--7--5--5-|
E|--5-------1--------------1------5------3------8-------1--5--3--3-|

P1

e|--------MAIN RIFF---------------|
B|--------------------------------|
G|---------------------9----------|
D|-----7------7---10--------------|
A|--------10----------------------|
E|--------------------------------|

P2

e|--------MAIN RIFF----------------------|
B|---------------------------------------|
G|-----------------9---9---7------7--9-7-|
D|-7------7---10--------------10---------|
A|----10---------------------------------|
E|---------------------------------------|

P3

e|--------MAIN RIFF---------------|
B|--------------------------------|
G|-7------7--9--7-----------------|
D|----10-----------10--7------7---|
A|------------------------10------|
E|--------------------------------|



By Piracity Family TOISSSSS
Добавлено: 10.08.2015
Другие материалы по этой песне:
  • Аккорды и текст

Страница создана 10.08.2015
http://primanota.ru/hives/two-kinds-of-trouble-chords.htm
Привет, Гость.
Предлагаем пройти революционный курс по гитаре.
Подарок от PrimaNota.Ru, забирай!