PrimaNota.ru - самый крупный в мире бесплатный архив песенных текстов, аккордов, табулатур и нот


Hives - These Spectacles Reveal The Nostalgics - таба, видео

Регистрация Запомнить меня
Войти через:  Facebook Google Twitter Vk Yandex Mail.ru

Hives - These Spectacles Reveal The Nostalgics - таба, видео

Печатать
Просмотров: 59
Авторы музыки: Randy Fitzsimmons
Авторы текста: Randy Fitzsimmons
-------------------------------------------------------------------------------
                             These Spectacles Reveal The Nostalgics - The Hives
-------------------------------------------------------------------------------
Tabbed by: Brian Wells
E-mail:

Tuning: Standard

  Intro/Verse
e|---------------------------------------------------------------------------|
B|---------------------------------------------------------------------------|
G|--------------------5-5-5-5-5-5-5-5----------------------------------------|
D|-7-7-7-7-7-7-7-7----5-5-5-5-5-5-5-5-x2--7-7-7-7-7-7-7-7--------------------|
A|-7-7-7-7-7-7-7-7-x4-3-3-3-3-3-3-3-3-----7-7-7-7-7-7-7-7-x2-----------------|
E|-5-5-5-5-5-5-5-5------------------------5-5-5-5-5-5-5-5--------------------|


e|---------------------------------------------------------------------------|
B|---------------------------------------------------------------------------|
G|--5-5-5-5-5-5-5-5-------------------------5-----------------5--------------|
D|--5-5-5-5-5-5-5-5-x2--7-7-7-7-7-7-7-7-----5---5-3---3-5---5-5---5-3---3-5--|
A|--3-3-3-3-3-3-3-3-----7-7-7-7-7-7-7-7-x2--3---5-3---3-5---5-3---5-3---3-5--|
E|----------------------5-5-5-5-5-5-5-5---------3-1---1-3---3-----3-1---1-3--|

e|---------------------------------------------------------------------------|
B|---------------------------------------------------------------------------|
G|---------------------------------------------------------------------------|
D|-3-3-3-3-3-3-3-3-----------------------------------------------------------|
A|-3-3-3-3-3-3-3-3-x2--------------------------------------------------------|
E|-1-1-1-1-1-1-1-1-----------------------------------------------------------|

  Chorus
e|---------------------------------------------------------------------------|
B|---------------------------------------------------------------------------|
G|-----------------------------------------------------------5-5-5-5-5-5-5-5-|
D|7-7-7-7-7-7-7-7--10-10-10-10-10-10-10-10--3-3-3-3-3-3-3-3--5-5-5-5-5-5-5-5-|
A|7-7-7-7-7-7-7-7--10-10-10-10-10-10-10-10--3-3-3-3-3-3-3-3--3-3-3-3-3-3-3-3-|
E|5-5-5-5-5-5-5-5---8--8--8--8--8--8--8--8--1-1-1-1-1-1-1-1------------------|

e|---------------------------------------------------------------------------|
B|---------------------------------------------------------------------------|
G|---------------------------------------------------------------------------|
D|7-7-7-7-7-7-7-7--10-10-10-10-10-10-10-10--3-3-3-3-3-3-3-3--5-5-5-5-5-5-5-5-|
A|7-7-7-7-7-7-7-7--10-10-10-10-10-10-10-10--3-3-3-3-3-3-3-3--5-5-5-5-5-5-5-5-|
E|5-5-5-5-5-5-5-5---8--8--8--8--8--8--8--8--1-1-1-1-1-1-1-1--3-3-3-3-3-3-3-3-|

e|---------------------------------------------------------------------------|
B|---------------------------------------------------------------------------|
G|-----------------------------------------------------------5-5-5-5-5-5-5-5-|
D|7-7-7-7-7-7-7-7--10-10-10-10-10-10-10-10--3-3-3-3-3-3-3-3--5-5-5-5-5-5-5-5-|
A|7-7-7-7-7-7-7-7--10-10-10-10-10-10-10-10--3-3-3-3-3-3-3-3--3-3-3-3-3-3-3-3-|
E|5-5-5-5-5-5-5-5---8--8--8--8--8--8--8--8--1-1-1-1-1-1-1-1------------------|

e|---------------------------------------------------------------------------|
B|---------------------------------------------------------------------------|
G|---------------------------------------------------------------------------|
D|7-7-7-7-7-7-7-7--10-10-10-10-10-10-10-10--3-3-3-3-3-3-3-3--5-5-5-5-5-5-5-5-|
A|7-7-7-7-7-7-7-7--10-10-10-10-10-10-10-10--3-3-3-3-3-3-3-3--5-5-5-5-5-5-5-5-|
E|5-5-5-5-5-5-5-5---8--8--8--8--8--8--8--8--1-1-1-1-1-1-1-1--3-3-3-3-3-3-3-3-|

  Verse
e|---------------------------------------------------------------------------|
B|---------------------------------------------------------------------------|
G|--------------------5-5-5-5-5-5-5-5----------------------------------------|
D|-7-7-7-7-7-7-7-7----5-5-5-5-5-5-5-5-x2--7-7-7-7-7-7-7-7--------------------|
A|-7-7-7-7-7-7-7-7-x2-3-3-3-3-3-3-3-3-----7-7-7-7-7-7-7-7-x2-----------------|
E|-5-5-5-5-5-5-5-5------------------------5-5-5-5-5-5-5-5--------------------|

e|---------------------------------------------------------------------------|
B|---------------------------------------------------------------------------|
G|--5-5-5-5-5-5-5-5-------------------------5-----------------5--------------|
D|--5-5-5-5-5-5-5-5-x2--7-7-7-7-7-7-7-7-----5---5-3---3-5---5-5---5-3---3-5--|
A|--3-3-3-3-3-3-3-3-----7-7-7-7-7-7-7-7-x2--3---5-3---3-5---5-3---5-3---3-5--|
E|----------------------5-5-5-5-5-5-5-5---------3-1---1-3---3-----3-1---1-3--|

e|---------------------------------------------------------------------------|
B|---------------------------------------------------------------------------|
G|-5-5-5-5-5-5-5-5-----------------------------------------------------------|
D|-5-5-5-5-5-5-5-5-x2--3-3-3-3-3-3-3-3--5-5-5-5-5-5-5-5----------------------|x2
A|-3-3-3-3-3-3-3-3-----3-3-3-3-3-3-3-3--5-5-5-5-5-5-5-5----------------------|
E|---------------------1-1-1-1-1-1-1-1--3-3-3-3-3-3-3-3----------------------|

e|---------------------------------------------------------------------------|
B|---------------------------------------------------------------------------|
G|---------------------------------------------------------------------------|
D|-3-3-3-3-3-3-3-3-----------------------------------------------------------|
A|-3-3-3-3-3-3-3-3-x4--------------------------------------------------------|
E|-1-1-1-1-1-1-1-1-----------------------------------------------------------|

Chorus/Outro
e|---------------------------------------------------------------------------|
B|---------------------------------------------------------------------------|
G|-----------------------------------------------------------5-5-5-5-5-5-5-5-|
D|7-7-7-7-7-7-7-7--10-10-10-10-10-10-10-10--3-3-3-3-3-3-3-3--5-5-5-5-5-5-5-5-|
A|7-7-7-7-7-7-7-7--10-10-10-10-10-10-10-10--3-3-3-3-3-3-3-3--3-3-3-3-3-3-3-3-|
E|5-5-5-5-5-5-5-5---8--8--8--8--8--8--8--8--1-1-1-1-1-1-1-1------------------|

e|---------------------------------------------------------------------------|
B|---------------------------------------------------------------------------|
G|---------------------------------------------------------------------------|
D|7-7-7-7-7-7-7-7--10-10-10-10-10-10-10-10--3-3-3-3-3-3-3-3--5-5-5-5-5-5-5-5-|
A|7-7-7-7-7-7-7-7--10-10-10-10-10-10-10-10--3-3-3-3-3-3-3-3--5-5-5-5-5-5-5-5-|
E|5-5-5-5-5-5-5-5---8--8--8--8--8--8--8--8--1-1-1-1-1-1-1-1--3-3-3-3-3-3-3-3-|

e|---------------------------------------------------------------------------|
B|---------------------------------------------------------------------------|
G|-----------------------------------------------------------5-5-5-5-5-5-5-5-|
D|7-7-7-7-7-7-7-7--10-10-10-10-10-10-10-10--3-3-3-3-3-3-3-3--5-5-5-5-5-5-5-5-|
A|7-7-7-7-7-7-7-7--10-10-10-10-10-10-10-10--3-3-3-3-3-3-3-3--3-3-3-3-3-3-3-3-|
E|5-5-5-5-5-5-5-5---8--8--8--8--8--8--8--8--1-1-1-1-1-1-1-1------------------|

e|---------------------------------------------------------------------------|
B|---------------------------------------------------------------------------|
G|---------------------------------------------------------------------------|
D|7-7-7-7-7-7-7-7--10-10-10-10-10-10-10-10--3-3-3-3-3-3-3-3--5-5-5-5-5-5-5-5-|
A|7-7-7-7-7-7-7-7--10-10-10-10-10-10-10-10--3-3-3-3-3-3-3-3--5-5-5-5-5-5-5-5-|
E|5-5-5-5-5-5-5-5---8--8--8--8--8--8--8--8--1-1-1-1-1-1-1-1--3-3-3-3-3-3-3-3-|


e|---------------------------------------------------------------------------|
B|---------------------------------------------------------------------------|
G|-----------------------------------------------------------5-5-5-5-5-5-5-5-|
D|7-7-7-7-7-7-7-7--10-10-10-10-10-10-10-10--3-3-3-3-3-3-3-3--5-5-5-5-5-5-5-5-|
A|7-7-7-7-7-7-7-7--10-10-10-10-10-10-10-10--3-3-3-3-3-3-3-3--3-3-3-3-3-3-3-3-|
E|5-5-5-5-5-5-5-5---8--8--8--8--8--8--8--8--1-1-1-1-1-1-1-1------------------|

e|---------------------------------------------------------------------------|
B|---------------------------------------------------------------------------|
G|---------------------------------------------------------------------------|
D|7-7-7-7-7-7-7-7--10-10-10-10-10-10-10-10--3-3-3-3-3-3-3-3------------------|
A|7-7-7-7-7-7-7-7--10-10-10-10-10-10-10-10--3-3-3-3-3-3-3-3------------------|
E|5-5-5-5-5-5-5-5---8--8--8--8--8--8--8--8--1-1-1-1-1-1-1-1------------------|

e|---------------------------------------------------------------------------|
B|---------------------------------------------------------------------------|
G|---------------------------------------------------------------------------|
D|-5-5-5-5-5-5-5-5-----7-----------------------------------------------------|
A|-5-5-5-5-5-5-5-5-x4--7-----------------------------------------------------|
E|-3-3-3-3-3-3-3-3-----5-----------------------------------------------------|


************************************

| /   slide up
| \   slide down
| h   hammer-on
| p   pull-off
| ~   vibrato
| +   harmonic
| x   Mute note
| b   Bend
| pb  Pre-bend
| br  Bend release
| pbr Pre-bend release
| brb Bend release bend

************************************
Добавлено: 28.10.2013
Другие материалы по этой песне:
  • Аккорды и текст

Страница создана 28.10.2013
http://primanota.ru/hives/these-spectacles-reveal-the-nostalgics-chords.htm
Привет, Гость.
Предлагаем пройти революционный курс по гитаре.
Подарок от PrimaNota.Ru, забирай!