PrimaNota.ru - самый крупный в мире бесплатный архив песенных текстов, аккордов, табулатур и нот


Hives - Outsmarted - аккорды и текст, таба, бас-таба, видео

Регистрация Запомнить меня
Войти через:  Facebook Google Twitter Vk Yandex Mail.ru

Hives - Outsmarted - аккорды и текст, таба, бас-таба, видео

Печатать
Просмотров: 203
Авторы музыки: Randy Fitzsimmons
Авторы текста: Randy Fitzsimmons
Outsmarted
Hives
song: outsmarted
band: the hives
album: veni, vidi, vicious
tabbed by: joel (j_sorensson@hotmail.com)

*=play chord 8 times

Noisy intro:
C


Rest of intro:
e----7/8------------------
b----7/8----7/8-7/8-------
g----8/9----8/9-8/9--*--*-
d-10-----10---------6--5--
a-10-----10---------6--5--
e--8------8---------4--3--

Or it might be:
e-------------------------
b----6b7----7b8-7b8-------
g----6b7----7b8-7b8--*--*-
d-10-----10---------6--5--
a-10-----10---------6--5--
e--8------8---------4--3--

Verse:
e--------------------------
b-------*-------*--------*-
g---*-10----*-10---*--*-5--
d-10--10--10--10--6--5--5--
a-10---8--10---8--6--5--3--
e--8-------8------4--3-----


Bass part of verse:
e-------------------
b-------------------
g-rest--then---*--*-
d-------------6--5--
a-------------6--5--
e-------------4--3--

"Outsmarted part"
F (a couple of times)

End on C

.noise. comments? corrections? questions? pics of cheese?
mail me.


     
Добавлено: 09.09.2013
Другие материалы по этой песне:
  • Аккорды и текст

Страница создана 25.03.2012
http://primanota.ru/hives/outsmarted-chords.htm
Привет, Гость.
Предлагаем пройти революционный курс по гитаре.
Подарок от PrimaNota.Ru, забирай!