PrimaNota.ru - самый крупный в мире бесплатный архив песенных текстов, аккордов, табулатур и нот


Hives - I Want More - таба, бас-таба, видео

Регистрация Запомнить меня
Войти через:  Facebook Google Twitter Vk Yandex Mail.ru

Hives - I Want More - таба, бас-таба, видео

Печатать
Просмотров: 156
Авторы музыки: Randy Fitzsimmons
Авторы текста: Randy Fitzsimmons
-------------------------------------------------------------------------------
                                     I Want More - The Hives
-------------------------------------------------------------------------------
Tabbed by: Brian Wells

Tuning: Standard

  Intro
e|-------------------3-0------------|   |----|
B|-----------------------3-0--------|   |----|
G|-----5---------------------2-0----|X4 |----|Last time end with this
D|2-2--5-7-7--5-2-2--------------2-0|   |-2--|
A|2-2--3-7-7--5-2-2-----------------|   |-2--|
E|0-0----5-5--3-0-0-----------------|   |-0--|

  Verse is mostly bass

  At 0:50
e|------------------------|
B|------------------------|
G|----------------7-------|
D|9--7-9--7-9-7-9-7-9--7--|
A|9--7-9--7-9-7-9-5-9--7--|
E|7--5-7--5-7-5-7---7--5--|

  At 1:18
e|------------------------|
B|------------------------|
G|----------------7-------|
D|9--7-9--7-9-7-9-7-9--7--|
A|9--7-9--7-9-7-9-5-9--7--|
E|7--5-7--5-7-5-7---7--5--|

  Chorus
e|-------------------3-0------------|  |------------------|
B|-----------------------3-0--------|  |------------------|
G|-----5---------------------2-0----|X3|------5-----------|
D|2-2--5-7-7--5-2-2--------------2-0|  |-2-2--5-7-7--5-2-2|
A|2-2--3-7-7--5-2-2-----------------|  |-2-2--3-7-7--5-2-2|
E|0-0----5-5--3-0-0-----------------|  |-0-0----5-5--3-0-0|

Bass Verse

  At 2:20
e|------------------------|
B|------------------------|
G|----------------7-------|
D|9--7-9--7-9-7-9-7-9--7--|
A|9--7-9--7-9-7-9-5-9--7--|
E|7--5-7--5-7-5-7---7--5--|

  Chorus/ Outro
e|-------------------3-0-----------------------------------------------------------|
B|-----------------------3-0-------------------------------------------------------|
G|-----5---------------------2-0-----------5---------------------------------------|
D|2-2--5-7-7--5-2-2--------------2-0--2-2--5-7-7--5-7-5-7-5-7-5-7-5-7-5-7-5-7-5-7-5|
A|2-2--3-7-7--5-2-2-------------------2-2--3-7-7--5-7-5-7-5-7-5-7-5-7-5-7-5-7-5-7-5|
E|0-0----5-5--3-0-0-------------------0-0----5-5--3-5-3-5-3-5-3-5-3-5-3-5-3-5-3-5-3|

e|----------------------------------------------|
B|----------------------------------------------|
G|-----5-------------5-------------5------------|
D|2-2--5-7-7--5-2-2--5-7-7--5-2-2--5-7-7--5-2-2-|
A|2-2--3-7-7--5-2-2--3-7-7--5-2-2--3-7-7--5-2-2-|
E|0-0----5-5--3-0-0----5-5--3-0-0----5-5--3-0-0-|

************************************

| /   slide up
| \   slide down
| h   hammer-on
| p   pull-off
| ~   vibrato
| +   harmonic
| x   Mute note
| b   Bend
| pb  Pre-bend
| br  Bend release
| pbr Pre-bend release
| brb Bend release bend

************************************
Добавлено: 14.11.2013
Другие материалы по этой песне:
  • Аккорды и текст

Страница создана 14.11.2013
http://primanota.ru/hives/i-want-more-chords.htm
Привет, Гость.
Предлагаем пройти революционный курс по гитаре.
Подарок от PrimaNota.Ru, забирай!