PrimaNota.ru - самый крупный в мире бесплатный архив песенных текстов, аккордов, табулатур и нот


Hives - I Cant Give It To You - таба, видео

Регистрация Запомнить меня
Войти через:  Facebook Google Twitter Vk Yandex Mail.ru

Hives - I Cant Give It To You - таба, видео

Печатать
Просмотров: 65
Авторы музыки: Randy Fitzsimmons
Авторы текста: Randy Fitzsimmons
-------------------------------------------------------------------------------
			     I CAN'T GIVE IT TO YOU - The Hives
-------------------------------------------------------------------------------
Tabbed by: Chromex
Email: chromex-@hotmail.com

-------------------------------------------------------------------------------

This song is one of my favorite Hives songs, and since no one made a tab for it yet, I 
to try to make one myself. And it came out pretty good, even though it only took about 5 
Anyway, here it is.

-------------------------------------------------------------------------------

Tuning:Standard

This is the intro. I don't know how many 7's it's supposed to be, just keep tremolo 
until the verse stars.

e|---------------------------------------------------------------------------|
B|---------------------------------------------------------------------------|
G|---------------------------------------------------------------------------|
D|---------------------------------------------------------------------------|
A|---------------------------------------------------------------------------|
E|-0/777777777777777777777777777777777777777777777777777777777777777777------|

This is the verse riff. Repeat as necessary.

e|----------------------|
B|----------------------|
G|----------------------|
D|----------------------|
A|--2-------------------|
E|-------------0----2---|

This is the part right before the chorus. Let all chords ring.

e|------------------------------------|
B|------------------------------------|
G|--9-----8-----7-----6---------------|
D|--9-----8-----7-----6---------------|
A|--7-----6-----5-----4---------------|
E|------------------------------------|

...and then the chorus. Repeat four times.
e|---------------------------------|
B|---------------------------------|
G|--4-4-4-4-4-4-4------------------|
D|--4-4-4-4-4-4-4-2-2-2-2-4-4-4-4--|
A|--2-2-2-2-2-2-2-2-2-2-2-4-4-4-4--|
E|----------------0-0-0-0-2-2-2-2--|


That's pretty much it. The guitar doesn't play anything during the bridge.

-------------------------------------------------------------------------------

| /  slide up
| \  slide down
| h  hammer-on
| p  pull-off
| ~  vibrato
| +  harmonic
| x  Mute note
===============================================================================
Добавлено: 24.09.2013
Другие материалы по этой песне:
  • Аккорды и текст

Страница создана 24.09.2013
http://primanota.ru/hives/i-cant-give-it-to-you-chords.htm
Привет, Гость.
Предлагаем пройти революционный курс по гитаре.
Подарок от PrimaNota.Ru, забирай!