PrimaNota.ru - самый крупный в мире бесплатный архив песенных текстов, аккордов, табулатур и нот


Hives - Declare Guerre Nucleaire - аккорды и текст, таба, бас-таба, видео

Регистрация Запомнить меня
Войти через:  Facebook Google Twitter Vk Yandex Mail.ru

Hives - Declare Guerre Nucleaire - аккорды и текст, таба, бас-таба, видео

Печатать
Просмотров: 155
Авторы музыки: Randy Fitzsimmons
Авторы текста: Randy Fitzsimmons
Declare Guerre Nucleaire
Hives
Artist: Hives, The
Song title: Declare Guerre Nuclaire
as it appears on: Veni Vidi Vicious

tabbed by Fabian Rost (frostus@gmx.net)

intro (played very slow):

E||----------------------|--------------------|------------------|
B||----------------------|--------------------|------------------|
G||--9---------7---------|--5--------4--------|------------------|
D||--9----9----7----7----|--5--------4--------|------------------|
A||--7----9----5----7----|--3--------2--------|------------------|
E||-------7---------5----|--------------------|------------------|

main riff (played all the time):

E||------------------------|-------------------------||
B||------------------------|-------------------------||
G||-------9----------------|-------14----------------||
D||--2----9----5--2--5--6--|--7----14----9--9--9--7--||
A||--2----7----5--2--5--6--|--7----12----9--9--9--7--||
E||--0---------3--0--3--4--|--5----------7--7--7--5--||

you should get the breaks easiely by listening. just let the guitar ring
out....

corrections or comments welcome
     
Добавлено: 20.11.2013
Другие материалы по этой песне:
  • Аккорды и текст

Страница создана 29.02.2012
http://primanota.ru/hives/declare-guerre-nucleaire-chords.htm
Привет, Гость.
Предлагаем пройти революционный курс по гитаре.
Подарок от PrimaNota.Ru, забирай!