PrimaNota.ru - самый крупный в мире бесплатный архив песенных текстов, аккордов, табулатур и нот


Hives - Are Law You Are Crime - бас-таба, видео

Регистрация Запомнить меня
Войти через:  Facebook Google Twitter Vk Yandex Mail.ru

Hives - Are Law You Are Crime - бас-таба, видео

Печатать
Просмотров: 71
Artist: The Hives
Track: The Hives Are Law, You Are Crime
Album: Your New Favourite Band
Bassist: Dr Matt Destruction
Tabber: Duncan Usher, iksose3@hotmail.com


Intro
G|--------------------------||------------------------------------------|--|
D|--------------------------||------------------------------------------|--|
A|--------------------------||------------------------------------------|x2|
E|--7-7---7-7---7-7---7-7---||----7-7-7-7-7-7-7-7-7-7-7-7-7-7-7-0-7-0-7-|--|

Verse
G|--------------------|--|----------------------------||
D|--------------------|--|----------------------------||
A|--------------------|x5|----------------------------||
E|--7-7-7-7-7-7-7-7---|--|--10-10-10-10-10-10-10-10---||

Chorus
G|---------------------------||
D|---------------------------||
A|--4-4-4--------------------||
E|---------4--5-5-5--4-------||

Then after the chorus it goes back to the verse, Simple but brilliant eh? Haha.
Anyway. I
Добавлено: 09.09.2013
Другие материалы по этой песне:
  • Аккорды и текст

Страница создана 09.09.2013
http://primanota.ru/hives/are-law-you-are-crime-chords.htm
Привет, Гость.
Предлагаем пройти революционный курс по гитаре.
Подарок от PrimaNota.Ru, забирай!