PrimaNota.ru - самый крупный в мире бесплатный архив песенных текстов, аккордов, табулатур и нот


Hive - Ultrasonic Sound - аккорды и текст, видео

Регистрация Запомнить меня
Войти через:  Facebook Google Twitter Vk Yandex Mail.ru

Hive - Ultrasonic Sound - аккорды и текст, видео

Печатать
Просмотров: 118
Авторы: Gary Miller, Paul D. Hudson, Anita Kerr, Rod McKuen, Michael Petrie, Darryl Jenifer

Ultrasonic Sound
Hive
This song is relativly easy. It consists of one riff
that is played over and over throughout the song. If
you have any corrections, please email them to me at
Ima_phreak20@yahoo.com. 

Lots of distortion
|-----------------------------------------------------|
|-----------------------------------------------------|
|-----------------------------------------------------|
|---6-6-6-6-6-7-6-8---6-6-6-6-6-6-5-6-----------------|
|---6-6-6-6-6-7-6-8---6-6-6-6-6-6-5-6-----------------|
|---4-4-4-4-4-5-4-6---4-4-4-4-4-4-3-4-----------------|

|-----------------------------------------------------|
|-----------------------------------------------------|
|-----------------------------------------------------|
|---6-6-6-6-6-7-6-8---6-6-6-6-6-6-5-4-----------------|
|---6-6-6-6-6-7-6-8---6-6-6-6-6-6-5-4-----------------|
|---4-4-4-4-4-5-4-6---4-4-4-4-4-4-3-2-----------------|

Listen to the song for timeing. Have fun!

=====
     
Добавлено: 14.07.2013
Другие материалы по этой песне:
  • Аккорды и текст

Страница создана 24.02.2012
http://primanota.ru/hive/ultrasonic-sound-chords.htm
Привет, Гость.
Предлагаем пройти революционный курс по гитаре.
Подарок от PrimaNota.Ru, забирай!