PrimaNota.ru - самый крупный в мире бесплатный архив песенных текстов, аккордов, табулатур и нот


Hit The Lights - Tell Me Where You Are - таба, видео

Регистрация Запомнить меня
Войти через:  Facebook Google Twitter Vk Yandex Mail.ru

Hit The Lights - Tell Me Where You Are - таба, видео

Печатать
Просмотров: 165
Let's keep it simple this time. I've been working on this song for a LONG time now. I'm 
this tab is 100% correct but if it isn't please tell me. There are two guitars and it is 
in DROP D FLAT. please note or it wont sound right. ENJOY.

These are played at the very start and the very end, lets call it Uno.
Uno:
E--12~~~~~-14~~~~~-16~~~~~~-14~~~~~--|
B------------------------------------|
G------------------------------------|
D------------------------------------|
A------------------------------------|
D------------------------------------|

Intro:
E--------------8-8-8---------------------------8-8-8-----------------|
B--5-5-5-6-6-6-------6-6---5-6-5---5-5-5-6-6-6-------6-6---5-6-5-6---|
G------------------------5-------5-----------------------5-----------|
D--------------------------------------------------------------------|
A--------------------------------------------------------------------|
D--------------------------------------------------------------------|

E--------------8-8-8---------------13-12---------------------------|
B--5-5-5-6-6-6-------6-6---5-6-5---------13~~--8h10-8~~--5-6-5-----|
G------------------------5-------5-----------------------------5~~-|
D------------------------------------------------------------------|
A------------------------------------------------------------------|
D------------------------------------------------------------------|

Verse 1:
E---------------------------------------------------------------------|
B---------------------------------------------------------------------|
G---------------------------------------------------------------------|
D--3-3-3-3-3-3-3-3-3-5-5-5-5-7-7-7-3-3-3-3-3-3-3-3-3-5-5-7-7-10-10-10-|
A--1-1-1-1-1-1-1-1-1-3-3-3-3-5-5-5-1-1-1-1-1-1-1-1-1-3-3-5-5-8--8--8--|
D---------------------------------------------------------------------|
   . . . . . . . . . . . . . . . . . . . . . . . . . . . . . .  .  .
   I've found...     how to get to her now...        I'll whisper in her

Verse Part 2:
E------1---3---1---0---1---0---------1---3---1---0---1---3---1--------|
B------------------------------1--------------------------------------|
G--3-3---3---3---3---3---3---3---3-3---3---3---3---3---3---3----------|
D---------------------------------------------------------------------|
A---------------------------------------------------------------------|
D---------------------------------------------------------------------|
   . .   .   .   .   .   .   .   . .   .   .   .   .   .   .
  ear when she's asleep....

This is played over that second part of the verse, the rhythm.
E----------------------------------------------------------------------|
B----------------------------------------------------------------------|
G----------------------------------------------------------------------|
D--3-3-3-3-3-3-3-3-3-5-5-5-5-7-7-7-3-3-3-3-3-3-3-3-3-5-5-7-7-10-10-10--|
A--1-1-1-1-1-1-1-1-1-3-3-3-3-5-5-5-1-1-1-1-1-1-1-1-1-3-3-5-5-8--8--8---|
D----------------------------------------------------------------------|
   . . . . . . . . . . . . . . . . . . . . . . . . .

These two bars are played in time with each other.  See the large space in between power 
The OTHER guitar should play what's in the second bar in that time. THIS SHALL BE VERSE 
3.
E---------------------------------------------------------------------|
B---------------------------------------------------------------------|
G--3-3--3-3------5-5-----7-7-10-3-3--3-3------------------------------|
D--3-3--3-3------5-5-0-0-7-7-10-3-3--3-3-------5-5-7-7-10-10-10-------|
A--1-1--1-1------3-3-0-0-5-5-8--1-1--1-1-------3-3-5-5-8--8--8--------|
D--------------------0-0----------------------------------------------|


E-----------6-5-3~~~~~~~--------------6-5-3~~~~~~~-----------------|
B------------------------------------------------------------------|
G------------------------------------------------------------------|
D------------------------------------------------------------------|
A------------------------------------------------------------------|
D------------------------------------------------------------------|

E-------------------------------------------------------------------|
B-------------------------------------------------------------------|
G--3-3--3-3---------5-5-----7-7-10-3-3-3-3-3-3-3-3-3-5-5-5-5-5-5-5--|
d--3-3--3-3---------5-5-0-0-7-7-10-3-3-3-3-3-3-3-3-3-5-5-5-5-5-5-5--|
A--1-1--1-1---------3-3-0-0-5-5-8--1-1-1-1-1-1-1-1-1-3-3-3-3-3-3-3--|
D-----------------------0-0-----------------------------------------|

E------------6-5-3~~~~~~~---------------------8-8-8----------------|
B---------------------------------5-5-5-6-6-6-------6-6---5-6-5----|
G-------------------------------------------------------5-------5--|
D------------------------------------------------------------------|
A------------------------------------------------------------------|
D------------------------------------------------------------------|

Prechorus (This song has alot of different parts to the verse so this is the prechorus):
E--------------------------------------------------------------------|
B--------------------------------------------------------------------|
G--------------------------------------------------------------------|
D--5-5-5-5-5-5-5-5-5-5-5-5-5-5-5-5-8-8-8-8-8-8-8-8-8-8-8-8-8-8-8-8---|
A--5-5-5-5-5-5-5-5-5-5-5-5-5-5-5-5-8-8-8-8-8-8-8-8-8-8-8-8-8-8-8-8---|
D--5-5-5-5-5-5-5-5-5-5-5-5-5-5-5-5-8-8-8-8-8-8-8-8-8-8-8-8-8-8-8-8---|
   . . . . . . . . . . . . . . . . . . . . . . . . . . . . . . . .

E--------------------------------------------------------------------------|
B--------------------------------------------------------------------------|
G--------------------------------------------------------------------------|
D--5-5-5-5-5-5-5-5-5-5-5-5-5-5-5-5-8-8-8-8-8-8-8-8-8-10-10-10-10-10-10-10--|
A--5-5-5-5-5-5-5-5-5-5-5-5-5-5-5-5-8-8-8-8-8-8-8-8-8-10-10-10-10-10-10-10--|
D--5-5-5-5-5-5-5-5-5-5-5-5-5-5-5-5-8-8-8-8-8-8-8-8-8-10-10-10-10-10-10-10--|
   . . . . . . . . . . . . . . . . . . . . . . . . .

Chorus (FINALLY):
E-------------------------------------------------------------------|
B-------------------------------------------------------------------|
G-------------------------------------------------------------------|
D--3-3-3-3-3-3-3-3-3-3-3-3-3-3-3-3-8-8-8-8-8-8-8-8-8-8-8-8-8-8-8-8--|
A--3-3-3-3-3-3-3-3-3-3-3-3-3-3-3-3-8-8-8-8-8-8-8-8-8-8-8-8-8-8-8-8--|
D--3-3-3-3-3-3-3-3-3-3-3-3-3-3-3-3-8-8-8-8-8-8-8-8-8-8-8-8-8-8-8-8--|


E--------------------------------------------------------------------------|
B--------------------------------------------------------------------------|
G--------------------------------------------------------------------------|
D--0-0-0-0-0-0-0-0-0-0-0-0-0-0-0-0-8-8-8-8-8-8-8-8-8-10-10-10-10-10-10-10--|
A--0-0-0-0-0-0-0-0-0-0-0-0-0-0-0-0-8-8-8-8-8-8-8-8-8-10-10-10-10-10-10-10--|
D--0-0-0-0-0-0-0-0-0-0-0-0-0-0-0-0-8-8-8-8-8-8-8-8-8-10-10-10-10-10-10-10--|

Repeat intro

Have the lead guitar play this over the first part of verse 2 while rhythm keeps the 
chords in the first verse. This should be played 2 times.
E------0-----0---------0-----0------------|
B----0-----0-----0---4-----4---4----------|
G--2-----2-----2---4-----6-------6--------|
D-----------------------------------------|
A-----------------------------------------|
D-----------------------------------------|

E------1---3---1---0---1---0----------1---3---1---6---5---3---1--|
B------------------------------1~--------------------------------|
G--3-3---3---3---3---3---3---3----3-3---3---3---3---3---3---3----|
D----------------------------------------------------------------|
A----------------------------------------------------------------|
D----------------------------------------------------------------|
   . .   .   .   .   .   .   .    . .   .   .   .   .   .   .

Repeat verse part 3
Repeat Prechorus
Repeat Chorus

Bridge. It's hard to tell the exact strum pattern but this is a rough draft. You can 
it and then tell me what sounds better, BUT these ARE the correct power chords.
E-----------------------------------------------------------------------|
B-----------------------------------------------------------------------|
G-----------------------------------------------------------------------|
D--8-8-8-8-7-5-0-0-0-0-10-10-10-10-8-8-8-8-7-5-5-5-5-5-10-10-10-10------|
A--8-8-8-8-7-5-0-0-0-0-10-10-10-10-8-8-8-8-7-5-5-5-5-5-10-10-10-10------|
D--8-8-8-8-7-5-0-0-0-0-10-10-10-10-8-8-8-8-7-5-5-5-5-5-10-10-10-10------|

E--------------------------------------------------------------------------|
B--------------------------------------------------------------------------|
G--------------------------------------------------------------------------|
D--8-8-8-8-7-5-0-0-0-0-10-10-10-10-8-8-8-8-8-8-8-8-8-10-10-10-10-10-10-----|
A--8-8-8-8-7-5-0-0-0-0-10-10-10-10-8-8-8-8-8-8-8-8-8-10-10-10-10-10-10-----|
D--8-8-8-8-7-5-0-0-0-0-10-10-10-10-8-8-8-8-8-8-8-8-8-10-10-10-10-10-10-----|

Repeat Uno

Play this, right before the chorus.
E--------------8-8-8---------------------------8-8-8--------------|
B--5-5-5-6-6-6-------6-6---5-6-5---5-5-5-6-6-6--------------------|
G------------------------5-------5--------------------5-5-5-5-----|
D-----------------------------------------------------5-5-5-5-----|
A-----------------------------------------------------3-3-3-3-----|
D-----------------------------------------------------------------|

Repeat Chorus
Repeat Chorus
Repeat Uno

AND YOU'RE DONE.

Legend:
~=Sustain
h=hammer on
.=Palm mute
Добавлено: 25.04.2012
Другие материалы по этой песне:
  • Аккорды и текст

Страница создана 16.03.2012
http://primanota.ru/hit-the-lights/tell-me-where-you-are-chords.htm
Привет, Гость.
Предлагаем пройти революционный курс по гитаре.
Подарок от PrimaNota.Ru, забирай!