PrimaNota.ru - самый крупный в мире бесплатный архив песенных текстов, аккордов, табулатур и нот


Hit The Lights - Call Outyou Are The Dishes - таба, видео

Регистрация Запомнить меня
Войти через:  Facebook Google Twitter Vk Yandex Mail.ru

Hit The Lights - Call Outyou Are The Dishes - таба, видео

Печатать
Просмотров: 101
Уроки эстрадного вокала в Санкт-Петербурге
Авторы: Hit the Lights

-----------------------------------------------------------------------
                    The Call Out(You Are the Dishes)-Hit The Lights
-----------------------------------------------------------------------


Email:gc_182@hotmail.com
Tabbed By:Hitthelights4


Intro:
Figure Out the Strumming


e-----------------------------------------------------------------------|
B-----------------------------------------------------------------------|
G-----------------------------------------------------------------------|
D--22222222--666666--444444-----22222---444444--6666666---444444444-----|
A--22222222--666666--444444-----22222---444444--6666666---444444444-----|
D--22222222--666666--444444-----22222---444444--6666666---444444444-----|

e-----------------------------------------------------------------------|
B-----------------------------------------------------------------------|
G-----------------------------------------------------------------------|
D--22222222--666666--444444---22222222222222222222222-------------------|
A--22222222--666666--444444---22222222222222222222222-------------------|
D--22222222--666666--444444---22222222222222222222222-------------------|

Verse:
Figure Out Strumming.

Guitar 1
e---------------------------------------------------|
B---------------------------------------------------|
G--1111111111---888888888---6666666666--444444------|
D--xxxxxxxxxx---xxxxxxxxx---xxxxxxxxxx--xxxxxx------|
A--9999999999---666666666---4444444444--222222------|
D---------------------------------------------------| Repeat 3 Times And on the 3rd end 
this

e----------------------------------|
B----------------------------------|
G--8888888888888888888-------------|
D--xxxxxxxxxxxxxxxxxxx-------------|
A--6666666666666666666-------------|
D----------------------------------|

Guitar 2:

e-----------------------------------------------------------------------|
B-----------------------------------------------------------------------|
G-----------------------------------------------------------------------|
D--2222---6666----2222----66666666666666--------------------------------|
A--2222---6666----2222----66666666666666--------------------------------|
D--2222---6666----2222----66666666666666--------------------------------|

Pre-Chorus:

(Both Guitars)

e-----------------------------------------------------------------------|
B-----------------------------------------------------------------------|
G-----------------------------------------------------------------------|
D--222222222--66666666--99999\-44444444---2222222--666666666--444444444-|
A--222222222--66666666--99999\-44444444---2222222--666666666--444444444-|
D--222222222--66666666--99999\-44444444---2222222--666666666--444444444-|

e-------|
B-------|
G--4----|
D--2----|
A--2----|
D--2----|

Chorus:


e-----------------------------------------------------------------------|
B-----------------------------------------------------------------------|
G-----------------------------------------------------------------------|
D--6666--4444--2222222222222--444444444--66666666666--222222222222------|
A--6666--4444--2222222222222--444444444--66666666666--222222222222------|
D--6666--4444--2222222222222--444444444--66666666666--222222222222------|


Break:

e-----------------------------------------------------------------------|
B-----------------------------------------------------------------------|
G-----------------------------------------------------------------------|
D--2222--4444---------------2222--4444------------------2---------------|
A--2222-------4444--2222----2222-------4444--2222-------2---------------|
D--2222---------------------2222------------------------2---------------|


Verse 2:

e-----------------------------------------------------------------------|
B-----------------------------------------------------------------------|
G-----------------------------------------------------------------------|
D-------6---------2--------6-------44-----------------------------------|
A-------6---------2--------6-------44-----------------------------------|
D-------6---------2--------6-------44-----------------------------------|


Pre-Chorus

e-----------------------------------------------------------------------|
B-----------------------------------------------------------------------|
G-----------------------------------------------------------------------|
D--222222222--66666666--99999--44444444---2222222--666666666--444444444-|
A--222222222--66666666--99999--44444444---2222222--666666666--444444444-|
D--222222222--66666666--99999--44444444---2222222--666666666--444444444-|

e-------|
B-------|
G--4----|
D--2----|
A--2----|
D--2----|

e---------------------------------|
B--353535353535353535353535353----|
G---------------------------------|
D---------------------------------|
A---------------------------------|
D---------------------------------|

Chorus:

(Repeatx2)
e-----------------------------------------------------------------------|
B-----------------------------------------------------------------------|
G-----------------------------------------------------------------------|
D--6666--4444--2222222222222--444444444--66666666666--222222222222------|
A--6666--4444--2222222222222--444444444--66666666666--222222222222------|
D--6666--4444--2222222222222--444444444--66666666666--222222222222------|

Bridge:


e-----------------------------------------------------------------------|
B-----------------------------------------------------------------------|
G-----------------------------------------------------------------------|
D--2222--4444---------------2222--4444----------------------------------|
A--2222-------4444--2222----2222-------4444--2222-----------------------|
D--2222---------------------2222----------------------------------------|

e-----------------------------------------------------------------------|
B-----------------------------------------------------------------------|
G-----------------------------------------------------------------------|
D--2222--4444---------------2222--4444----------------------------------|
A--2222-------4444--2222----2222-------4444--2222-----------------------|
D--2222---------------------2222----------------------------------------|

e-----------------------------------------------------------------------|
B-----------------------------------------------------------------------|
G-----------------------------------------------------------------------|
D--6666--4444---------------6666--4444----------------------------------|
A--6666-------4444--6666----6666-------4444--6666-----------------------|
D--6666---------------------6666----------------------------------------|

e-----------------------------------------------------------------------|
B-----------------------------------------------------------------------|
G-----------------------------------------------------------------------|
D--2222--4444---------------2222--4444----------------------------------|
A--2222-------4444--2222----2222-------4444--2222-----------------------|
D--2222---------------------2222----------------------------------------|

e-----------------------------------------------------------------------|
B-----------------------------------------------------------------------|
G-----------------------------------------------------------------------|
D--6666--4444-------------44444444444-----------------------------------|
A--6666-------4444--6666--44444444444------2p4-4------------------------|
D--6666-------------------44444444444-----------------------------------|

e----------|
B----------|
G----------|
D--2----6--|
A--2----6--|
D--2----6--|

e-----------------------------------------------------------------------|
B-----------------------------------------------------------------------|
G-----------------------------------------------------------------------|
D-----------------------------------------------------------------------|
A-----------------------------------------------------------------------|
D--2222222222222222222-6666666666666--444444444-------------------------|


Chorus:

e-----------------------------------------------------------------------|
B-----------------------------------------------------------------------|
G-----------------------------------------------------------------------|
D--22222222222222--4444444444444--66666666666666--222222222222222222----|
A--22222222222222--4444444444444--66666666666666--222222222222222222----|
D--22222222222222--4444444444444--66666666666666--222222222222222222----|

e-----------------------------------------------------------------------|
B-----------------------------------------------------------------------|
G-----------------------------------------------------------------------|
D--6666--4444--2222222222222--444444444--66666666666--2222--------------|
A--6666--4444--2222222222222--444444444--66666666666--2222--------------|
D--6666--4444--2222222222222--444444444--66666666666--2222--------------|

Thats it!!
Thanks, and please rate!!!
Добавлено: 30.06.2012
Другие материалы по этой песне:
  • Аккорды и текст

Страница создана 30.06.2012
http://primanota.ru/hit-the-lights/call-outyou-are-the-dishes-chords.htm
Привет, Гость.
Предлагаем пройти революционный курс по гитаре.
Подарок от PrimaNota.Ru, забирай!