PrimaNota.ru - самый крупный в мире бесплатный архив песенных текстов, аккордов, табулатур и нот


Hit The Lights - Breathe In - текст песни, таба, видео

Регистрация Запомнить меня
Войти через:  Facebook Google Twitter Vk Yandex Mail.ru

Hit The Lights - Breathe In - текст песни, таба, видео

Печатать
Просмотров: 96
Tabbed by: Joshua Garcia (joshuag523@aol.com)

Tabs for the song: Breathe In by Hit The Lights
Please rate and let me know if you have any corrections. Thank you.


Tuning: Drop C# (C# G# C# F# A# D#)


Intro
Guitar 1:
D#||---------------------------------------------------------------|
A#||---------------------------------------------------------------|
F#||---------------------------------------------------------------|
C#||------7p0---------7p0-----------------7p0---------7p0-----5\4--|
G#||----------5h7---------5h7-----5h7---------5h7-0-0-----5h7------|
C#||--5-5---------5-5---------5-5-5h7-0-0--------------------------|



Pre-Verse
Guitar 1:
D#||----------------------------------------------------------------|
A#||----------------------------------------------------------------|
F#||--------------------------------------------------7--7--7-------|
C#||------7p0---------7p0-------------4-4-7-4---------x--x--x-------|
G#||----------5h7---------5h7-----5h7-2-2-----7-5-0~--5--5--5--12\--|
C#||--5-5---------5-5---------5-5-5h7--------------------------12\--|


D#||-------------------------------------------------------------------|
A#||-------------------------------------------------------------------|
F#||-------------------------------------------------------------------|
C#||------7p0---------7p0-----------------7p0---------7p0-----5\4---7--|
G#||----------5h7---------5h7-----5h7---------5h7-0-0-----5h7-----5----|
C#||--5-5---------5-5---------5-5-5h7-0-0------------------------------|


D#||---------------------------------------------------------------|
A#||---------------------------------------------------------------|
F#||--------------------------------------------------7--7--7--7~--|
C#||------7p0---------7p0-------------4-4-7-4---------x--x--x--x---|
G#||----------5h7---------5h7-----5h7-2-2-----7-5-0~--5--5--5--5~--|
C#||--5-5---------5-5---------5-5-5h7------------------------------|


Guitar 2:
D#||-------------------------------------------------------|
A#||-------------------------------------------------------|
F#||------------------------------------------7--7--7--7---|
C#||--555---555---555---555---4-4-7-4---------x--x--x--x---|
G#||--555---555---555---555---2-2-----7-5-0~--5--5--5--5~--|
C#||--555---555---555---555--------------------------------|


D#||--------------------------------------------------|
A#||--------------------------------------------------|
F#||--------------------------------------------------|
C#||--555---555---555---555---000---007---777---797~--|
G#||--555---555---555---555---000---007---777---797~--|
C#||--555---555---555---555---000---007---777---797~--|


D#||-------------------------------------------------------|
A#||-------------------------------------------------------|
F#||------------------------------------------7--7--7--7---|
C#||--555---555---555---555---4-4-7-4---------x--x--x--x---|
G#||--555---555---555---555---2-2-----7-5-0~--5--5--5--5~--|
C#||--555---555---555---555--------------------------------|



Verse
Guitar 1:
D#||--------------------------------------------|
A#||--101010101010-777777-8888-777777-55555555--|
F#||--7-7-7-7-7-7--777777-7777-777777-77777777--|
C#||--------------------------------------------| x2
G#||--------------------------------------------|
C#||--------------------------------------------|


Guitar 2:
D#||-------------------------------------------------|------------------------------------------|
A#||-------------------------------------------------|------------------------------------------|
F#||-----------------------------77------------------|---------------------------777------------|
C#||--55-----55-------5---99-----77------------------|--55-----55-------5---999--777--77777777--|
G#||--55-----55-------5---99-----55---------4h5p4-0--|--55-----55-------5---999--555--77777777--|
C#||--55-----55-----555---99---------77-7-7----------|--55-----55-----555---999-------77777777--|
                    ..               .. . .                           ..



Pre-Verse
Guitar 1:
D#||--------------------|------------------------------|
A#||--------------------|------------------------------|
F#||--7777777777777777--|--77777777-1212-1111-99-7/9---|
C#||--xxxxxxxxxxxxxxxx--|--xxxxxxxx-x-x--x-x--xx-x/x---|
G#||--5555555555555555--|--55555555-1010-9-9--77-5/7---|
C#||--------------------|------------------------------|


D#||---------------------|-------------------------|
A#||---------------------|-------------------------|
F#||--7777777777777/999--|--11---11-14---14-99999--|
C#||--xxxxxxxxxxxxx/xxx--|--x----x--x----x--xxxxx--|
G#||--5555555555555/777--|--9----9--12---12-77777--|
C#||---------------------|-------------------------|


Guitar 2:
D#||-------------------------------------------|----------------------------------------------|
A#||-------------------------------------------|----------------------------------------------|
F#||-----------------------------77------------|------------------------------7---7-----------|
C#||--55-----55---5--5555-99-----77---7--7777--|--55-----55---5--5h777--9---9-7---7-7------7--|
G#||--55-----55---5--5555-99-----55---7--7777--|--55-----55---5--5h777--9---9-5---5-7------7--|
C#||--55-----55---5--5555-99----------7--7777--|--55-----55---5--5h777--9---9-------7--7-7-7--|
                                                                                       . .


Chorus
Guitar 1/2:
D#||-------------------------------------|------------------------------------------------|
A#||-------------------------------------|------------------------------------------------|
F#||-------------------------------------|------------------------------------------------|
C#||--5--5~\\\----0---7--7--7------7--7--|--5--5~\\\----0---7--7--7--7--7--------5-4------|
G#||--5--5~\\\----0---7--7--7------7--7--|--5--5~\\\----0---7--7--7--7--7------------7-5--|
C#||--5--5~\\\----0---7--7--7------7--7--|--5--5~\\\----0---7--7--7--7--7--7--77----------|
                                                                           .  ..

D#||----------------------------------|--------------------------------------------------|
A#||----------------------------------|--------------------------------------------------|
F#||----------------------------------|--------------------------------------------------|
C#||--5--5~\\\----0---7--7--7------7--|--5--5--5--5--0--0--0--0--7--7--7--7--7--7--7--7--|
G#||--5--5~\\\----0---7--7--7------7--|--5--5--5--5--0--0--0--0--7--7--7--7--7--7--7--7--|
C#||--5--5~\\\----0---7--7--7------7--|--5--5--5--5--0--0--0--0--7--7--7--7--7--7--7--7--|



Pre-Verse
Guitar 1:
D#||-------------------------------------------------------------------|
A#||-------------------------------------------------------------------|
F#||-------------------------------------------------------------------|
C#||------7p0---------7p0-----------------7p0---------7p0-----5\4---7--|
G#||----------5h7---------5h7-----5h7---------5h7-0-0-----5h7-----5----|
C#||--5-5---------5-5---------5-5-5h7-0-0------------------------------|


D#||---------------------------------------------------------------|
A#||---------------------------------------------------------------|
F#||--------------------------------------------------7--7--7--7~--|
C#||------7p0---------7p0-------------4-4-7-4---------x--x--x--x---|
G#||----------5h7---------5h7-----5h7-2-2-----7-5-0~--5--5--5--5~--|
C#||--5-5---------5-5---------5-5-5h7------------------------------|


Guitar 2:
D#||--------------------------------|
A#||--------------------------------|
F#||--------------------------------|
C#||--5---000---007---777---7//-14--|
G#||--5---000---007---777---7//-14--|
C#||--5---000---007---777---7//-14--|


D#||-------------------------------------------------------|
A#||-------------------------------------------------------|
F#||------------------------------------------7--7--7--7---|
C#||--555---555---555---555---4-4-7-4---------x--x--x--x---|
G#||--555---555---555---555---2-2-----7-5-0~--5--5--5--5~--|
C#||--555---555---555---555--------------------------------|



Verse
Guitar 1:
D#||------------------------------------------------------------------|
A#||--11---11---11---7---7---7---8---7---7---7---7---5---5---5---5----|
F#||-----7----7----7---7---7---7---7---7---7---7---7---7---7---7---7--|
C#||------------------------------------------------------------------| x2
G#||------------------------------------------------------------------|
C#||------------------------------------------------------------------|
      .  . .  . .  . . . . . . . . . . . . . . . . . . . . . . . . .


Guitar 2:
D#||-------------------------------------------------|------------------------------------------|
A#||-------------------------------------------------|------------------------------------------|
F#||-----------------------------77------------------|---------------------------777------------|
C#||--55-----55-------5---99-----77------------------|--55-----55-------5---999--777--77777777--|
G#||--55-----55-------5---99-----55---------4h5p4-0--|--55-----55-------5---999--555--77777777--|
C#||--55-----55-----555---99---------77-7-7----------|--55-----55-----555---999-------77777777--|
                    ..               .. . .                           ..



Pre-Verse
Guitar 1/2:
D#||-------------------------------------------|
A#||-------------------------------------------|
F#||-------------------------------------------|
C#||--5555555555555555-99999999-7777-12121212--|
G#||--5555555555555555-99999999-7777-12121212--|
C#||--5555555555555555-99999999-7777-12121212--|


Guitar 1:
D#||-----------------------------------|
A#||-----------------------------------|
F#||-------------------7---11---9-999--|
C#||--5555555555555555-x---x----x-xxx--|
G#||--5555555555555555-5---9----7-777--|
C#||--5555555555555555-----------------|


Guitar 2:
D#||-----------------------------------|
A#||-----------------------------------|
F#||-----------------------------------|
C#||--5555555555555555-5---0----7---7--|
G#||--5555555555555555-5---0----7---7--|
C#||--5555555555555555-5---0----7-777--|
                                  ..


Chorus
Guitar 1/2:
D#||-------------------------------------|------------------------------------------------|
A#||-------------------------------------|------------------------------------------------|
F#||-------------------------------------|------------------------------------------------|
C#||--5--5~\\\----0---7--7--7------7--7--|--5--5~\\\----0---7--7--7--7--7--------5-4------|
G#||--5--5~\\\----0---7--7--7------7--7--|--5--5~\\\----0---7--7--7--7--7------------7-5--|
C#||--5--5~\\\----0---7--7--7------7--7--|--5--5~\\\----0---7--7--7--7--7--7--77----------|
                                                                           .  ..

D#||----------------------------------|---------------------------|
A#||----------------------------------|---------------------------|
F#||----------------------------------|---------------------------|
C#||--5--5~\\\----0---7--7--7------7--|--5--5--5--5--0--0--0--7~--|
G#||--5--5~\\\----0---7--7--7------7--|--5--5--5--5--0--0--0--7~--|
C#||--5--5~\\\----0---7--7--7------7--|--5--5--5--5--0--0--0--7~--|



Bridge
Guitar 1/2:
D#||------------------------------------|
A#||------------------------------------|
F#||------------------------------------|
C#||--9~--------5~--------7~--------7~--|
G#||--9~--------5~--------7~--------7~--|
C#||--9~--------5~--------7~--------7~--|


D#||-------------------------------------------------|
A#||-------------------------------------------------|
F#||-------------------------------------------------|
C#||--9~--------5~--------7~--------------------777--|
G#||--9~--------5~--------7~----------------7777777--|
C#||--9~--------5~--------7~--------777777777777777--|
                                    .........


Guitar 3 (harmonic)
D#||--5~-------------------------|--5~-------7---------------|
A#||----------7b8p7~---5~--------|---------------5~----------|
F#||--------------------------7--|---------------------7-6~--|
C#||-----------------------------|---------------------------| x2
G#||-----------------------------|---------------------------|
C#||-----------------------------|---------------------------|



Main Riff
Guitar 1:
D#||-------------------------------------------------------------------|
A#||-------------------------------------------------------------------|
F#||-------------------------------------------------------------------|
C#||------7p0---------7p0-----------------7p0---------7p0-----5\4---7--|
G#||----------5h7---------5h7-----5h7-0-0-----5h7-0-0-----5h7-----5----|
C#||--5-5---------5-5---------5-5-5h7----------------------------------|


D#||----------------------------------------------------------|
A#||----------------------------------------------------------|
F#||---------------------------------------------------7-7-7--|
C#||------7p0---------7p0--------------9---0---7----7--x-x-x--|
G#||----------5h7---------5h7-----5h7--9---0---7----7--5-5-5--|
C#||--5-5---------5-5---------5-5-5h7--9---0---7----7---------|
                                                    .

Guitar 2:
D#||---------------------------------------------------------------------------------|
A#||---------------------------------------------------------------------------------|
F#||--------------------------------------------------------------------------7-7-7--|
C#||--5~-----5~-----5~---7~-----7~-----7~---5~-----5~----5~---9---0---7~------x-x-x--|
G#||--5~-----5~-----5~---7~-----7~-----7~---5~-----5~----5~---9---0---7~------5-5-5--|
C#||--5~-----5~-----5~---7~-----7~-----7~---5~-----5~----5~---9---0---7~-------------|



Pre-Chorus
Guitar 1/2:
D#||----------|-----------|
A#||----------|-----------|
F#||----------|-----7-----|
C#||--5~---\--|-----7--7--|
G#||--5~---\--|-----5--7--|
C#||--5~---\--|--00----7--|
                 ..


Chorus
Guitar 1:
D#||-----------------------------------|--------------------------------------|
A#||-----------------------------------|--------------------------------------|
F#||--7-7-7-7-7-7-7-7-7-7-7-7-5-5-5-5--|--7-7-7-7-7-7-/-11-9-9-9-9-7-6-6-6-6--|
C#||--x-x-x-x-x-x-x-x-x-x-x-x-x-x-x-x--|--x-x-x-x-x-x-/-x--x-x-x-x-x-x-x-x-x--|
G#||--5-5-5-5-5-5-5-5-5-5-5-5-4-4-4-4--|--5-5-5-5-5-5-/-9--7-7-7-7-5-4-4-4-4--|
C#||-----------------------------------|--------------------------------------|


Guitar 1:
D#||-------------------------------------------|
A#||-------------------------------------------|
F#||--12-12-12-12-11-11-11-11-9-9-9-9-9-9-9-9--|
C#||--x--x--x--x--x--x--x--x--x-x-x-x-x-x-x-x--|
G#||--10-10-10-10-9--9--9--9--7-7-7-7-7-7-7-7--|
C#||-------------------------------------------|


Guitar 2:
D#||-----------------------------------|
A#||-----------------------------------|
F#||-----------------------------------|
C#||--5-5-5-5-0-0-0-0-7-7-7-7-7-7-7-7--| x2
G#||--5-5-5-5-0-0-0-0-7-7-7-7-7-7-7-7--|
C#||--5-5-5-5-0-0-0-0-7-7-7-7-7-7-7-7--|


D#||------------------------------------|
A#||------------------------------------|
F#||------------------------------------|
C#||--5-5-5-5-0-0-0-0-7-7-7-7-7-7-//\\--|
G#||--5-5-5-5-0-0-0-0-7-7-7-7-7-7-//\\--|
C#||--5-5-5-5-0-0-0-0-7-7-7-7-7-7-//\\--|



Outro
Guitar 1:
D#||--------------------------------------------------------|
A#||--------------------------------------------------------|
F#||--1212--121212--121111--111111--1199--999--999--999--9--|
C#||--x-x---x-x-x---x-x-x---x-x-x---x-xx--xxx--xxx--xxx--x--|
G#||--1010--101010--109-9---9-9-9---9-77--777--777--777--7--|
C#||--------------------------------------------------------|


D#||------------------------------------------------------|
A#||------------------------------------------------------|
F#||--1212--121212--121111--111111--1199--999--999--999~--|
C#||--x-x---x-x-x---x-x-x---x-x-x---x-xx--xxx--xxx--xxx---|
G#||--1010--101010--109-9---9-9-9---9-77--777--777--777~--|
C#||------------------------------------------------------|


D#||------|
A#||------|
F#||--7~--|
C#||--x---|
G#||--5~--|
C#||------|


Guitar 2:
D#||--------------------------------------------|
A#||--------------------------------------------|
F#||--------------------------------------------|
C#||--55--555--500--000--077--777--777--777--7--|
G#||--55--555--500--000--077--777--777--777--7--|
C#||--55--555--500--000--077--777--777--777--7--|


D#||------------------------------------------|
A#||------------------------------------------|
F#||------------------------------------------|
C#||--55--555--500--000--077--777--777--777~--|
G#||--55--555--500--000--077--777--777--777~--|
C#||--55--555--500--000--077--777--777--777~--|


D#||------|
A#||------|
F#||------|
C#||--5~--|
G#||--5~--|
C#||--5~--|




Tablature Legend
----------------
 h   - hammer-on
 p   - pull-off
 b   - bend
 r   - release bend
 *   - pinch harmonic
 '   - natural harmonic
 x   - mute note
 .   - palm mute
 /   - slide down
 \   - slide up
Добавлено: 25.11.2013
Другие материалы по этой песне:
  • Аккорды и текст

Страница создана 25.11.2013
http://primanota.ru/hit-the-lights/breathe-in-chords.htm
Привет, Гость.
Предлагаем пройти революционный курс по гитаре.
Подарок от PrimaNota.Ru, забирай!