PrimaNota.ru - самый крупный в мире бесплатный архив песенных текстов, аккордов, табулатур и нот


Hit The Lights - Bodybag - текст песни, таба, видео

Регистрация Запомнить меня
Войти через:  Facebook Google Twitter Vk Yandex Mail.ru

Hit The Lights - Bodybag - текст песни, таба, видео

Печатать
Просмотров: 117
Авторы: Hit the Lights

-----------------------------------------------------------------------
                             BODYBAG – Hit The Lights
-----------------------------------------------------------------------
Tabbed by: Stephen Tzianabos
Email: cltzianabos@charter.net

Tuning: Drop D

If u see gaps between chords, that just means I was too lazy to tab it all out, so u can
out the strumming. Plus this is my first tab, so be patient w/ me. Also, this song
tabbed out straight through. In order to get the song right, your gonna have to look at
bottom of the page where it says order.

(0:00) Intro/Chorus                              Intro is clean.

e|-------------------------------------------|------------------------|
B|-------------------------------------------|------------------------|
G|-------------------------------------------|------------------------|
D|----------------------7-----------2---4----|-000-444-222-777-0---2--|
A|----------------------7-----------2---4—x2-|-000-444-222-777-0---2--|
D|----------------------7-----------2---4----|-000-444-222-777-0—--2--|
(“Your gonna need a bodybag…”)                 (“nothing left of you…”)

Pre Verse (0:17)
Pre Verse Lead (1st Guitar)
e|----------------------------------------------------------------------|
B|------5---------------5-----------------------------------------------|
G|--21--4-6p4-2—---2/1--4-6p4-2-----------------------------------------|
D|------------------------------2---------------------------------------|x2
A|----------------------------------------------------------------------|
D|----------------------------------------------------------------------|


Pre Verse rhythm (2nd Guitar)                  same rhythm as lead, just play these
to that rhythm.
e|-----------------|
B|-----------------|
G|-----------------|
D|----7---0—--2---4|
A|----7---0---2---4|
D|----7---0---2---4|

Verse 1 (2nd Guitar)  (0:25)
(“next time around…”)
e|--------------------------------------------------------------------|
B|--------------------------------------------------------------------|
G|--------------------------------------------------------------------|
D|---000--2--000--4-2-000---------------------------------------------|
A|---000--2--000--4-2-000---------------------------------------------|
D|---000--2--000--4-2-000---------------------------------------------|
PM……………………………………………………………

1st Guitar joins at (0:33) and plays this chord repeatedly
e|------|
B|------|
G|--14--|
D|--x---|
A|--12--|
D|------|


Pre Chorus (1st guitar) (0:42)
e|-------|
B|-------|
G|---9---|
D|---x---| repeat until chorus.
A|---7---|
D|-------|

2nd Guitar

e|-------------------|
B|-------------------|
G|-------------------|
D|---2--44-0000000---|x2
A|---2--44-0000000---|
D|---2--44-0000000---|

Verse 2 (one guitar)              (2nd time through 1st part,the 4s on the 1st three
turn into 7s).
(1:15)
        x2
e|--------------|-----------------------------------------------------|
B|--------------|-----------------------------------------------------|
G|--------------|-----------------------------------------------------|
D|--00-0~--4-2—-|---00000000-22222222-44444444-000000-222222----------|
A|--00-0~--4-2--|---00000000-22222222-44444444-000000-222222----------|
D|--00-0~--4-2--|---00000000-22222222-44444444-000000-222222----------|
PM…………              …………………………………………………………………………………………………………


Bridge, 1st Guitar
(1:55)
e|--------------------------------------------------------------------|
B|--------------------------------------------------------------------|
G|--------------------------------------------------------------------|
D|--44------00-----22--22----44444444-00000000-2222222222222222-------|
A|--44------00-----22--22----44444444-00000000-2222222222222222-------|
D|--44------00-----22--22----44444444-00000000-2222222222222222-------|


2nd guitar (change chord after 1st guitar plays the 0s)
e|-------------------------------------------------------------|
B|-------------------------------------------------------------|
G|-666666666666666----444444444444444--------------------------|
D|-xxxxxxxxxxxxxxx----xxxxxxxxxxxxxxx--------------------------|
A|-444444444444444----666666666666666--------------------------|
E|-------------------------------------------------------------|
 Order:
Chorus
Pre Verse
Verse 1
Pre Chorus
Chorus
Pre Verse
Verse 2
Pre Chorus
Chorus
Bridge
Chorus w/ Pre Verse Lead.

END

I hope this tab was a help to you. Post your comments, questions, and suggestions in the
section.
Thank You!
Добавлено: 13.04.2012
Другие материалы по этой песне:
  • Аккорды и текст

Страница создана 13.04.2012
http://primanota.ru/hit-the-lights/bodybag-chords.htm
Привет, Гость.
Предлагаем пройти революционный курс по гитаре.
Подарок от PrimaNota.Ru, забирай!