PrimaNota.ru - самый крупный в мире бесплатный архив песенных текстов, аккордов, табулатур и нот


Hirokazu Tanaka - Kraids Lair - таба, видео

Регистрация Запомнить меня
Войти через:  Facebook Google Twitter Vk Yandex Mail.ru

Hirokazu Tanaka - Kraids Lair - таба, видео

Печатать
Просмотров: 69
METROID (NES) 
KRAID'S LAIR by Hirokazu Tanaka

Tab by bibbly (itisbibbly[at]gmail.com)

I covered this song in Famitracker using 8bitDanooct1's tutorial on Youtube. The tab comes directly from that
so it should (hopefully) be slightly more accurate than existing tabs!


Kraid's Theme [Lead Channel] 

PHRASE 1 (x4) 
E-----------------------------------------------------------------------------------------------------------|
B--------------10-------------------------------------------------------------------------------------------|
G---9--------------------------11---------------------------------------------------------------------------|
D-----------9--------------10------------12--9---------8----------------------------------------------------|
A-----------------------------------------------------------------------------------------------------------|
E-----------------------------------------------------------------------------------------------------------|

PHRASE 2 (x2) 
E-----------------------------------------------------------------------------------------------------------|
B---8--------------------------7------------10--------------------------------------------------------------|
G-----------7--9-------------------------7-------------9----------------------------------------------------|
D---------------------------9-------------------------------------------------------------------------------|
A-----------------------------------------------------------------------------------------------------------|
E-----------------------------------------------------------------------------------------------------------|

PHRASE 3 (x4) [Play it tapped] 
E-----------------------------------------------------------------------------------------------------------|
B-----------------------------------------------------------------------------------------------------------|
G----12--9--12--9--12--9--15--9--15--9--15--9--14--5--14--5--14--5--14--8--11--8--16--9---------------------|
D-----------------------------------------------------------------------------------------------------------|
A-----------------------------------------------------------------------------------------------------------|
E-----------------------------------------------------------------------------------------------------------|

PHRASE 4 (x2) 
E--------------------10----14--10------------------17--14-----------------------------10--12----------------|
B------------10--12-----12---------10----------12----------15---------------------10------------------------|
G----11--12----------------------------12--11------------------14--12--11-----12----------------------------|
D--------------------------------------------------------------------------14--------------------------------|
A-----------------------------------------------------------------------------------------------------------|
E-----------------------------------------------------------------------------------------------------------|

PHRASE 5 (x2) 
E---17-----15-----14-----12----14-----15-----17-----15-----14-----12-----14-----15--------------------------|
B-----------------------------------------------------------------------------------------------------------|
G-----------------------------------------------------------------------------------------------------------|
D-----------------------------------------------------------------------------------------------------------|
A-----------------------------------------------------------------------------------------------------------|
E-----------------------------------------------------------------------------------------------------------|



Kraid's Theme [Triangle/Bass Channel] 

PHRASE 1 (x4) 
E-----------------------------------------------------------------------------------------------------------|
B-----------------------------------------------------------------------------------------------------------|
G-----------9--------------------9--------------------9--------------------9--------------------------------|
D-----------------------------------------------------------------------------------------------------------|
A------7--------------------7--------------------7--------------------7-------------------------------------|
E-----------------------------------------------------------------------------------------------------------|

PHRASE 2 (x2) 
E-----------------------------------------------------------------------------------------------------------|
B-----------------------------------------------------------------------------------------------------------|
G-----------------------------------------------------------------------------------------------------------|
D----------10--------------------10------------------12--------------------12-------------------------------|
A-----------------------------------------------------------------------------------------------------------|
E------8--------------------8-------------------10--------------------10------------------------------------|

PHRASE 3 (x4) 
E---------------12--------------------14------------------13--------------------19--------------------------|
B-----------------------------------------------------------------------------------------------------------|
G-----------9--------------------11------------------10--------------------16-------------------------------|
D-----------------------------------------------------------------------------------------------------------|
A-------7-------------------9-------------------8---------------------14------------------------------------|
E-----------------------------------------------------------------------------------------------------------|

PHRASE 4 (x2) 
E-----------------------------------------------------------------------------------------------------------|
B-----------------------------------------------------------------------------------------------------------|
G-----------------------------------------------------------------------------------------------------------|
D-------------------9--10---------9----------------------------------------9--------------------------------|
A-------7--------------------------------------------------10--12-------------------------------------------|
E---------------------------------------------8-------------------------------------------------------------|

PHRASE 5 (x1) [Technically just the bottom E but I tabbed a power chord to beef it up. Let it ring]
E-----------------------------------------------------------------------------------------------------------|
B-----------------------------------------------------------------------------------------------------------|
G-----------------------------------------------------------------------------------------------------------|
D----2------------------------------------------------------------------------------------------------------|
A----2------------------------------------------------------------------------------------------------------|
E----0------------------------------------------------------------------------------------------------------|

Добавлено: 23.06.2016
Вам также может быть интересно:
Другие материалы по этой песне:
  • Аккорды и текст

Страница создана 23.06.2016
http://primanota.ru/hirokazu-tanaka/kraids-lair-chords.htm
Привет, Гость.
Предлагаем пройти революционный курс по гитаре.
Подарок от PrimaNota.Ru, забирай!