PrimaNota.ru - самый крупный в мире бесплатный архив песенных текстов, аккордов, табулатур и нот


Hippo Campus - South - таба, видео

Регистрация Запомнить меня
Войти через:  Facebook Google Twitter Vk Yandex Mail.ru

Hippo Campus - South - таба, видео

Печатать
Просмотров: 61
-------------------------------------------------------------------------------
                             Hippo Campus - South
-------------------------------------------------------------------------------
Tabbed by: Dominic B
E-mail: dominicbutton@gmail.com

Absolute tune. 
From both ear and some YouTube vids, here's what I've got for the intro part 
with both guitars. 
_______________________________________________________________________________

Guitar 1: (0:00 - 0:30)

Loops twice. Sounds best lightly palm muted.

e|-----------------------------------|
B|-----------------------------------|
G|-----------------------------------|
D|-----------------------------------|  (X2)
A|--6-8-6----------------------------|
E|--------8-4-4-4-4-4-4-4-4-4-4-4-4--|
                                               
e|-----------------------------------|
B|-----------------------------------|
G|-----------------------------------|  (X2)
D|------6----------------------------|
A|--6-8---8-4-4-4-4-4-4-4-4-4-4-4-4--|
E|-----------------------------------|

_______________________________________________________

Guitar 2: (comes in @ 0:16)

Sounds best by hybrid picking the notes simultaneously. 
Listen for the notes that bend.

e|------------------------------------|
B|------------------------------------|
G|--13\--10\--8\--5\--5b--------------|  (X2)
D|--x----x----x---x---x---------------|
A|--11\--8\---6\--3\--3b--------------|
E|------------------------------------|

e|------------------------------------|
B|------------------------------------|
G|--13\--10/--15/--17--17b------------|  (X2)
D|--x----x----x----x---x--------------|
A|--11\--8/---13/--15--15b------------|
E|------------------------------------|

_______________________________________________________

************************************

| /   slide up
| \   slide down
| h   hammer-on
| p   pull-off
| ~   vibrato
| +   harmonic
| x   Mute note
| b   Bend
| pb  Pre-bend
| br  Bend release
| pbr Pre-bend release
| brb Bend release bend

************************************
Добавлено: 03.05.2016
Другие материалы по этой песне:
  • Аккорды и текст

Страница создана 03.05.2016
http://primanota.ru/hippo-campus/south-chords.htm
Привет, Гость.
Предлагаем пройти революционный курс по гитаре.
Подарок от PrimaNota.Ru, забирай!