PrimaNota.ru - самый крупный в мире бесплатный архив песенных текстов, аккордов, табулатур и нот


Hippo Campus - Little Grace - таба, видео

Регистрация Запомнить меня
Войти через:  Facebook Google Twitter Vk Yandex Mail.ru

Hippo Campus - Little Grace - таба, видео

Печатать
Просмотров: 36
---------------------------------------------------------
                HIPPO CAMPUS - Little Grace
                "Bashful Creatures EP"
---------------------------------------------------------
        Tabbed with help from live version @ https://youtu.be/DmA9Uefd-Uc

Nice and catchy song with great guitar licks. Not so easy because of the fast tempo.
Any question and/or criticism, please feel free to contact me : plugin79@hotmail.com

Regular tuning : EADGBe
Tone : clean + reverb + some EHX Pog2


        //INTRO//
Guit.1
e|------------------------------------------------------------|
B|--14---14-X--14--14---14-X--14-14---------------------------|
G|--14---14-X--14--14---14-X--14-14---14-X---14-14---14-X-14--|
D|--14---14-X--14--14---14-X--14-14---14-X---14-14---14-X-14--|
A|--12---12-X--12--12---12-X--X--X----X--X---X---X---X--X-X---|
E|-------------------------------12---12-X---12-10---10-X-10--|

e|-------------------------------------------------------------|
B|--14---14-X--14--14---14-X----------------------X-X-X-X-X-X--|
G|--14---14-X--14--14---14-X-12-/14--14-14--14-14-X-X-X-X-X-X--|
D|--14---14-X--14--14---14-X-12-/14--14-14--14-14-X-X-X-X-X-X--|
A|--12---12-X--12--12---12-X-12-/16--16-16--16-14-X-X-X-X-X-X--|
E|-------------------------------------------------------------|

then A / F#m / E

Guit.2
e|--17-17-17-17-17-17-17-14---------------------------------------|
B|--------------------------16-14-----14----16-14-------14--------|
G|--------------------------------16--------------16-------16-14--|
D|----------------------------------------------------------------|
A|----------------------------------------------------------------|
E|----------------------------------------------------------------|

e|-----------------------------------------------------|
B|------------------------------------5----------------|
G|-----6-4----------------6-4-----------6-4------------|
D|---------7-4--/4--7---------7-4-----------7----------|
A|--------------------------------7--------------------|
E|--5------------------5-------------------------------|


        //VERSE//
Guit.1
   PM..............................................................................................
e|---------------------------------------------------------------------------------------------------|
B|---------------------------------------------------------------------------------------------------|
G|---------------------------------------------------------------------------------------------------|
D|---------------------------------------------------------------------------------------------------|
A|--12-12-12-12-12-12-12-12-------------------------12-12-12-12-12-12-12-12-16-16-16-16-14-14-14-14--|
E|--------------------------14-14-14-14-12-12-12-12--------------------------------------------------|


        //CHORUS//

Guit. 1

A / F#m / E

Guit.2
e|----------------------------------------------------------------------------------------------------------|
B|--5--------------------------5----------------------------5--------------------------5-----5-----5--------|
G|----6-6-4--6------4-6----(4)---6-6-4--6------/6-4-----------6-6-4--6-------4-6---(6)---6-6---6-6---6-6-4--|
D|--------------4-7-----------------------4-7-------7-7-----------------4-7---------------------------------|
A|----------------------------------------------------------------------------------------------------------|
E|----------------------------------------------------------------------------------------------------------|


        //BRIDGE//

Guit. 1

A / F#m / E
A / Bm  / C#m

Guit.2
e|-----5---------5---------7---------2---------5---------5---------7---------9------|
B|-------5---------5---------7---------2---------5---------5---------7---------9----|
G|--6------6--6------6--7------7--2------2--6------6--6------6--7------7--9------9--|
D|----------------------------------------------------------------------------------|
A|----------------------------------------------------------------------------------|
E|----------------------------------------------------------------------------------|


        //INTERLUDE//

Guit.2
e|--17-17-17-17-17-17-17-14-------14-------------------------------------------------------|
B|--------------------------17-------17-14----17-14-------14-------------------------------|
G|--------------------------------------------------16-------16-14---16-14-------------14--|
D|-------------------------------------------------------------------------16----14-16-----|
A|-----------------------------------------------------------------------------------------|
E|-----------------------------------------------------------------------------------------|

Guit.2
e|------14--------14--------14--------14--17--14---------------14------14--------14--|
B|--17--------17--------17--------17--------------17--14----17------17--------17-----|
G|-----------------------------------------------------------------------------------|
D|-----------------------------------------------------------------------------------|
A|-----------------------------------------------------------------------------------|
E|-----------------------------------------------------------------------------------|

e|-----14-14-14-16-16-16-16-16b17-16-16--|
B|--17-----------------------------------|
G|---------------------------------------|
D|---------------------------------------|
A|---------------------------------------|
E|---------------------------------------|

Guit.2 (EHW Pog2 octaver is used there)
   PM........................................................
e|------------------------------------------------------------|
B|-----------------------------------------------17-----------|
G|------18-16--------------------18-16--------------18-16-----|
D|------------19-16--/16-19------------19-16--------------19--|
A|-------------------------------------------19---------------|
E|--17-----------------------17-------------------------------|

e|-----------------------------------------------------|
B|------------------------------------5----------------|
G|-----6-4----------------6-4-----------6-4------------|
D|---------7-4--/4--7---------7-4-----------7----------|
A|--------------------------------7--------------------|
E|--5------------------5-------------------------------|


        //OUTRO//

Guit.2

e|--17-16-------------------14----------------------------------|
B|--------17-14----14-17----------------14-----------------17\--|
G|--------------16----------------16----------16-14--------14\--|
D|--------------------------------------------------------------|
A|--------------------------------------------------------------|
E|--------------------------------------------------------------|

************************************
| /   slide up
| \   slide down
| h   hammer-on
| p   pull-off
| ~   vibrato
| +   harmonic
| x   Mute note
| b   Bend
| pb  Pre-bend
| br  Bend release
| pbr Pre-bend release
| brb Bend release bend
************************************
Добавлено: 13.12.2015
Другие материалы по этой песне:
  • Аккорды и текст

Страница создана 13.12.2015
http://primanota.ru/hippo-campus/little-grace-chords.htm
Привет, Гость.
Предлагаем пройти революционный курс по гитаре.
Подарок от PrimaNota.Ru, забирай!