PrimaNota.ru - самый крупный в мире бесплатный архив песенных текстов, аккордов, табулатур и нот


Hippo Campus - The Halocline - аккорды и текст, видео

Регистрация Запомнить меня
Войти через:  Facebook Google Twitter Vk Yandex Mail.ru

Hippo Campus - The Halocline - аккорды и текст, видео

Печатать
Просмотров: 101
The Halocline
Hippo Campus
Hippo Campus - The Halocline
Chords Used - E C#m A

E - x79997 and 022100 **

C#m - x46654

A - x02220

*Note: The opening guitar lick is played throughout the verses and chorus. If you listen to the song, you
will know when the riff is played and when just chords are played. The riff repeats itself over and over 
when it is played.

**Note: The E chord is used throughout the entire song, and for every part. For the verses, though, use the
barre chord E up on the seventh fret. Later in the song for the more intense "this is our home" part, use
open E. It sound the best this way and is what it sounds like on the recording.

    E                                             C#m
e|--------------------------------------------- ------------------------------------------|
B|--------------------------------------------- ------------------------------------------|
G|-------------9-9----------------9-9---------- -----------------------------4-4----------|
D|-----------------11-----------------11-11-9-- ----------6-6-4----------6-6-----6-6-4-4--|
A|---7-7-11-11----------7-7-11-11-------------- --4-4-7-7--------4-4-7-7------------------|
E|--------------------------------------------- ------------------------------------------|

E
 I scream your name
    C#m
 As blood bursts from my vein
        E
 In our darkest days
     C#m
 The blood bursts from my vein


 E
 Crawling out of the sewer
 C#m
 Crimson red
     E
 I'm calling out
        C#m
 To the walking dead


 E
 This is my home

 This is my only way
 C#m
 This is my home

 This is my only way
 E
 This is my home

 This is my only way
 C#m
 This is my home
                     E
 This is my only way home
 C#m
 Home

 E C#m

 E               C#m
 Oh, the sun has died
 E                   C#m 
 Face toward the halocline
 E           C#m
 We all have died
 E                  C#m
 We all are the halocline

 Singing out


 E
 This is our home

 This is our only way
 C#m
 This is our home

 This is our only way
 E
 This is our home
 
 This is our only way
 C#m
 This is our home

 This is our only way


 E
 This is our home

 This is our only way
 C#m
 This is our home

 This is our only way
 E
 This is our home

 This is our only way
 C#m
 This is our home

 This is our only way


*Switch to open E

 E
 This is our home

 This is our only way
 A
 This is our home, home, home
 E
 This is our home
 
 This is our only way
 A
 This is our home, home, home

Guitar Solo:
*The guitar solo uses tremolo picking and is repeated
    E                    A
e|-----------------------9-9----9-9-9-----------|
B|-------9-------9-12-12-----12-------12-9------|
G|--9-11----9-11---------------------------(9)--|
D|----------------------------------------------|
A|----------------------------------------------|
E|----------------------------------------------|(Repeated) *The last (9) is the same note as the beginning
                                                             of the solo.

 E
 Home, home, home, home
 A
 Home, home, home, home

    E                                             C#m
e|--------------------------------------------- ------------------------------------------|
B|--------------------------------------------- ------------------------------------------|
G|-------------9-9----------------9-9---------- -----------------------------4-4----------|
D|-----------------11-----------------11-11-9-- ----------6-6-4----------6-6-----6-6-4-4--|
A|---7-7-11-11----------7-7-11-11-------------- --4-4-7-7--------4-4-7-7------------------|
E|--------------------------------------------- ------------------------------------------|

*Riff played until faded out
Добавлено: 03.05.2016
Вам также может быть интересно:
Другие материалы по этой песне:
  • Аккорды и текст

Страница создана 03.05.2016
http://primanota.ru/hippo-campus/halocline-chords.htm
Привет, Гость.
Предлагаем пройти революционный курс по гитаре.
Подарок от PrimaNota.Ru, забирай!