PrimaNota.ru - самый крупный в мире бесплатный архив песенных текстов, аккордов, табулатур и нот


Hiperkarma - üres - аккорды и текст, видео

Регистрация Запомнить меня
Войти через:  Facebook Google Twitter Vk Yandex Mail.ru

Hiperkarma - üres - аккорды и текст, видео

Печатать
Просмотров: 156
Уроки эстрадного вокала в Санкт-Петербурге
üres
Hiperkarma
Előadó/Artist: Hiperkarma
Dal/Song: Üres
Album: Hiperkarma
Készítette/Tabbed by: Farkas Péter

Hangolás/Tuning: Standard (EADGBe)


Am       |x02210|
Am7/G    |3x2013|
C        |x32010|
C7       |x32310|
F        |133211|
E        |022100|
G        |320033|
G5/H     |x20033|
Dm       |xx0231|
Dadd9    |xx0230|
Dadd9/C  |x30230|
A7       |x02020|


e|-----------------------------------------|
B|-----------------------------------------|
G|-----------------------------------------|
D|-----------------------------------------|
A|-3-----------------0---------------------|
E|----------3----0----------------3----0---|
    Üresen állok       Mindennek háttal

e|-----------------------------------------------------------------|
B|-----------------------------------------------------------------|
G|-----------------------------------------------------------------|
D|-0---------------------------------------------------------------|
A|---------3-------2-----------------2----3----2-------------------|
E|------------------------------2----------------------3---------0-|
    Veled álmodni könnyebb mint egyedül ébren vagy valaki mással

e|----------------------------------------------------|
B|----------------------------------------------------|
G|----------------------------------------------------|
D|---------------------------------------0------------|
A|-0----------------------------------------3-----2---|
E|--------------3-----------------------------------3-|
    Megfejtesz mindenkit jófej vagy mégsem vagy jól

         Am    C
 Tátongó ember
                F                    E                  F    C   C7
 Veled álmodni könnyebb mint egyedül ébren vagy valaki mással

 Jobb lesz

 Dm - E 
 Dm - E  
 Dm = G = C = C7
 Dm - E
 Dadd9 = Dadd9/C = G5/H = G


C             G     Em
 Ma álmodban jöttem
Am           Am7/G   
 A hitedben hinni
Dadd9   Dadd9/C     G5/H       G         C                  G    Em
 És soha semmit nem képzeltem mindig is tudtam hogy mikor mibol mennyi
Am        Am7/G         Dadd9  Dadd9/C  
 De egy mosolyba bújva
     G5/H       G        Am     C 
 Még most is az arcodra fagynék
                F                    E                  F     C    E 
 Veled álmodni könnyebb mint egyedül ébren vagy valaki mással 

 Jobb lesz

 Am  Am - C7 - F - A7
 Dadd9 = Dadd9/C = G5/H

 Dm - E - Dm - E  
 Dm = G = C = C7

Dm          E    
 Ha igazán élnél
     Dadd9    Dadd9/C G5/H  G      C
 Én a válladról nézném végig ahogy élek
G Em      Am   Am7/G
  Valaki mással
        Dadd9  Dadd9/C  G5/H  
 Egyedül ébren
 G         Am              Am7/G
 Mindennek háttal semmit se szól
           Dadd9  Dadd9/C     G5/H  G
 Vele álmodni könnyebb mint egyedül ébren
           Am    Am7/G
 Mindennek háttal

 Dadd9 = Dadd9/C = G5/H = G
 Am - Am7/G   
 Dadd9 = Dadd9/C = G5/H = G
 F
 Am - Am7/G

       Dadd9  Dadd9/C G5/H 
 Igen a fonákon menni mindig
  G         Am     Am7/G
 Mindennek háttal...

 Dadd9 = Dadd9/C = G5/H = G
 Am - Am7/G
 Dadd9 = Dadd9/C = G5/H = G



Добавлено: 08.08.2015
Другие материалы по этой песне:
  • Аккорды и текст

Страница создана 08.08.2015
http://primanota.ru/hiperkarma/ures-chords.htm
Привет, Гость.
Предлагаем пройти революционный курс по гитаре.
Подарок от PrimaNota.Ru, забирай!