PrimaNota.ru - самый крупный в мире бесплатный архив песенных текстов, аккордов, табулатур и нот


Hinto - かなしみアップデイト - бас-таба, видео

Регистрация Запомнить меня
Войти через:  Facebook Google Twitter Vk Yandex Mail.ru

Hinto - かなしみアップデイト - бас-таба, видео

Печатать
Просмотров: 80
Intro:

G|---------------------------------------------
D|---------------------------------------------
A|--9-------9-------9--------------------------
E|----------------------------4--6--7--9--11-


Chorus x8:

G|------------------------------------------------------------
D|---------12-11----------------------------------------------
A|-----------------12--------------7--9-----------------------
E|--12-------------------11--11-------------4--6--7--9--11----


Verse (part 1) x8:

G|----------------------------------------
D|----------------------------------------
A|-----------------------------9----------
E|--12--12-----11--11----------------4----


Verse (part 2) x3:                                      4th time, play: 

G|-------------------------------------------------------|------------------------------------------------
D|--------------------------------------------14--11-----|------------------------------------------------
A|------12----------------7--9-------12-------------12---|------12----------------7-----------------------
E|--12------12--11--11-----------------------------------|--12------12--11--11------------4--6--7--9--11--


Chorus x12:

G|------------------------------------------------------------
D|---------12-11----------------------------------------------
A|-----------------12--------------7--9-----------------------
E|--12-------------------11--11-------------4--6--7--9--11----


Verse (part 1) x8:

G|----------------------------------------
D|----------------------------------------
A|-----------------------------9----------
E|--12--12-----11--11----------------4----


Verse (part 2) x3:                                      4th time, play: 

G|-------------------------------------------------------|------------------------------------------------
D|--------------------------------------------14--11-----|------------------------------------------------
A|------12----------------7--9-------12-------------12---|------12----------------7-----------------------
E|--12------12--11--11-----------------------------------|--12------12--11--11------------4--6--7--9--11--


Chorus x15:                                            16th time, play: 
G|---------------------------------------------------|-------------------------------------------------
D|-------12-11---------------------------------------|-------12-11-------------------------------------
A|-----------------12------------7--9----------------|-----------------12------------7--9--------------
E|--12---------------11--11-----------4--6--7--9--11-|--12---------------11--11-----------4--6--7-9----


Outtro:

G|---------------------------------------------
D|---------------------------------------------
A|--9-------9-------9------------------5~------
E|----------------------------4--6--7----------





Добавлено: 12.08.2015
Другие материалы по этой песне:
  • Аккорды и текст

Страница создана 12.08.2015
http://primanota.ru/hinto/-chords.htm
Привет, Гость.
Предлагаем пройти революционный курс по гитаре.
Подарок от PrimaNota.Ru, забирай!