PrimaNota.ru - самый крупный в мире бесплатный архив песенных текстов, аккордов, табулатур и нот


Hinds - San Diego - таба, видео

Регистрация Запомнить меня
Войти через:  Facebook Google Twitter Vk Yandex Mail.ru

Hinds - San Diego - таба, видео

Печатать
Просмотров: 131
Уроки эстрадного вокала в Санкт-Петербурге
-------------------------------------------------------------------------------
                             SAN DIEGO - Hinds (fka Deers)
-------------------------------------------------------------------------------
Tabbed by: lisca
E-mail: marta.eldoro@gmail.com
09/01/2015

Listen to the song here: https://www.youtube.com/watch?v=9P2l0zAr3t8

Tuning: Standard
Tab + chords
(listen to the song for the strumming pattern)


  mute    G   A      C  Asus G
e|--x-----3---0------0---0---3--|       
B|--x-----3---2------1---3---3--|
G|--x-----4---2------0---2---4--|  
D|--x-----5---2------2---2---5--|
A|--x-----5---0------3---0---5--|
E|--x-----3---x------0---x---3--|



G                                 A
You couldn't stay here one more night, 
C                  Asus      G
so take me to the beach, alright. 


G                               A
You're getting blinder taking drugs, 
C              Asus    G
we didn't even say goodbye. 


G                        A
You are alone I can see why, 
C                  Asus       G
'cause home is my grave at night. 


G                              A           C             Asus      G
So why don't you just take my hand? stay close to me or know i'll die ! 

                     
e|--------------------------------------------------------------------------------------------|
B|-----12-10-------12-10-------------15--------------10-------10---12-10----------------------|
G|--9-------12-9--------12-12/15-12-----17-15-12-9-12--12---12--12------12-9-7-7-9-7-9-7-7/12-|
D|--------------------------------------------------------------------------------------------|
A|--------------------------------------------------------------------------------------------|
E|--------------------------------------------------------------------------------------------|

  G             A        C   Asus     
I'm staying I'm staying tadadadada... (x2)



x3
Добавлено: 03.06.2016
Другие материалы по этой песне:
  • Аккорды и текст

Страница создана 03.06.2016
http://primanota.ru/hinds/san-diego-chords.htm
Привет, Гость.
Предлагаем пройти революционный курс по гитаре.
Подарок от PrimaNota.Ru, забирай!