PrimaNota.ru - самый крупный в мире бесплатный архив песенных текстов, аккордов, табулатур и нот


Hinds - Garden - таба, видео

Регистрация Запомнить меня
Войти через:  Facebook Google Twitter Vk Yandex Mail.ru

Hinds - Garden - таба, видео

Печатать
Просмотров: 87
Уроки эстрадного вокала в Санкт-Петербурге
-------------------------------------------------------------------------------
                             GARDEN - Hinds (fka Deers)
-------------------------------------------------------------------------------
Tabbed by: lisca
E-mail: marta.eldoro@gmail.com
03/01/2015

Listen to the song here: https://www.youtube.com/watch?v=E67rVvLkXhI

Tuning: Standard
Tab + baarre chords

Intro
(listen to the song for the strumming pattern)

   C     F  
e|-8-----1---|       
B|-8-----1---|
G|-9-----2---|  x4  
D|-10----3---|
A|-10----3---|
E|-8-----1---|

   Bb    C
e|-1-----3---|
B|-3-----5---|
G|-3-----5---|  
D|-3-----5---|
A|-1-----3---|
E|-1-----3---|

                     
e|-------------------------------|
B|-6-6-8-6-8-10-8-6-6-6-----6-6--|
G|----------------------7-5------|
D|-------------------------------|
A|-------------------------------|
E|-------------------------------|


Verse
                                      
   F                                                     Bb
  How many secrets you have that keep you smiling that way?

e|-1----------------------------------------------------1-|       
B|-1----------------------------------------------------3-|
G|-2----------------------------------------------------3-|    
D|-3----------------------------------------------------3-|
A|-3----------------------------------------------------1-|
E|-1----------------------------------------------------1-|

                      F
You better start to behave.




e|----------------------------------------------|
B|-10-10-10-8-6-8-6-8-6---10-10-10-8-6---6-8-6--|
G|-------------------------------------5--------|  x2
D|----------------------------------------------|
A|----------------------------------------------|
E|----------------------------------------------|



F                                                  Bb
And how many scars you don't share, and why do i care?

                                    F
Still, i can smell that something failed.




e|----------------------------------------------|
B|-10-10-10-8-6-8-6-8-6---10-10-10-8-6---6-8-6--|
G|-------------------------------------5--------|  x2
D|----------------------------------------------|
A|----------------------------------------------|
E|----------------------------------------------|


F                                                   Bb
And you robbed that map just to run away, and that car but 

"don't turn off the lights yet"? you know that you're afraid.



Chorus

   F                   C        D
  And I feel like i'm freezing again,

e|-1------------------8---------6----|       
B|-1------------------8---------6----|
G|-2------------------9---------7----|    
D|-3------------------10--------8----|
A|-3------------------10--------8----|
E|-1------------------8---------6----|

F                     C        D
you won't say you're bored anymore
 F                          C   D
'cause i can take you dancing
F                C   D
use me to feel home.


F                                 Bb
it's the same old story of the bad boy,
                      C
give me the keys and i'll..



Verse

F                                                      Bb
how many times did you come until i found you in this dirty spot, in this random place?
                                          F
i can tell - i can tell that something failed


e|----------------------------------------------|
B|-10-10-10-8-6-8-6-8-6---10-10-10-8-6---6-8-6--|
G|-------------------------------------5--------|  x2
D|----------------------------------------------|
A|----------------------------------------------|
E|----------------------------------------------|



F                                                 Bb                     
Give me the money, show me the game because i'll play it, i'll play it, i'll take it now.


Chorus

F                       C      D
And I feel like i'm freezing again,
F                      C       D
you won't say you're bored anymore
 F                         C     D
'cause i can take you dancing
F                C   D
use me to feel home.


F                               Bb
It's the same old story of the bad boy
                          C                         F
give me the keys and i'll show you how to fight for more.



Outro

e|-------------------------------|
B|-6-6-8-6-8-10-8-6-6-6-----6-6--|
G|----------------------7-5------|
D|-------------------------------|
A|-------------------------------|
E|-------------------------------|

Добавлено: 03.06.2016
Другие материалы по этой песне:
  • Аккорды и текст

Страница создана 03.06.2016
http://primanota.ru/hinds/garden-chords.htm
Привет, Гость.
Предлагаем пройти революционный курс по гитаре.
Подарок от PrimaNota.Ru, забирай!