PrimaNota.ru - самый крупный в мире бесплатный архив песенных текстов, аккордов, табулатур и нот


Hinds - Between Cans - таба, видео

Регистрация Запомнить меня
Войти через:  Facebook Google Twitter Vk Yandex Mail.ru

Hinds - Between Cans - таба, видео

Печатать
Просмотров: 137
Hinds - Between Cans
The b-side to the "Barn" 7-inch (2014).

Listen to the song here:
http://hinds.bandcamp.com/album/barn

Hinds was formerly known as "Deers"
But had to change their name due to complications
With another band from Canada with a similar-sounding name!

Tabbed by Isaac Murguia, January 2015.
Originally uploaded to Ultimate-Guitar.com
Contact: www.youtube.com/user/Goadiroth

INTRO:
  Lead
e|----------------------------------------------10-------|
B|------8---8/10--10-8-10-10/12---12-10-12---12----12-10-|
G|-7--7---7----------------------------------------------|
D|-------------------------------------------------------|
A|-------------------------------------------------------|
E|-------------------------------------------------------|

e|------------------------------------------|
B|------8---8/10--10-8-10-8---8-8-8-10---8--|
G|----7---7---------------------------------|
D|------------------------------------------|
A|------------------------------------------|
E|------------------------------------------|

  Rhythm (listen to song for strumming patterns)
e|-3----0----0----2----|
B|-3----0----1----3----|
G|-4----2----0----2----|
D|-5----2----2----0----|
A|-5----2----3---------|
E|-3----0--------------| [x2]

VERSE:
  Lead
e|-19-15-------------------19-15------------------|
B|-------17/20----15-17-15----------15-17-15------|
G|-------------------------------------------16---|
D|------------------------------------------------|
A|------------------------------------------------|
E|------------------------------------------------|

  Rhythm (listen to song for strumming patterns)
e|-3----0----0----2----|
B|-3----0----1----3----|
G|-4----2----0----2----|
D|-5----2----2----0----|
A|-5----2----3---------|
E|-3----0--------------| [x4]

CHORUS:
  Repeat RHYTHM CHORDS [x2]

INTRO VARIATION:
  Lead
e|----------------------------------------------10-------|
B|------8---8/10--10-8-10-10/12---12-10-12---12----12-10-|
G|-7--7---7----------------------------------------------|
D|-------------------------------------------------------|
A|-------------------------------------------------------|
E|-------------------------------------------------------|

e|--------------------------------------|-------|
B|------8---8/10--10-8-10-8---8-8-8-10--|-8-----|
G|----7---7-----------------------------|----7--|
D|--------------------------------------|-------|
A|--------------------------------------|-------|
E|--------------------------------------|-------|

  Rhythm (listen to song for strumming patterns)
e|-3----0----0----2----|-3----0----0--|
B|-3----0----1----3----|-3----0----1--|
G|-4----2----0----2----|-4----2----0--|
D|-5----2----2----0----|-5----2----2--|
A|-5----2----3---------|-5----2----3--|
E|-3----0--------------|-3----0-------|
          [x3]
e|-10-10-10-10-10-10-|-10------------|
B|-10-10-10-10-10-10-|-10------------|
G|-11-11-11-11-11-11-|-11------------|
D|-12-12-12-12-12-12-|-12----12-10-9-|
A|-12-12-12-12-12-12-|-12----12-10-9-|
E|-10-10-10-10-10-10-|-10----10-8--7-|

Repeat VERSE
Repeat CHORUS

INTRO VARIATION, B:
  Lead
e|----------------------------------------------10-------|
B|------8---8/10--10-8-10-10/12---12-10-12---12----12-10-|
G|-7--7---7----------------------------------------------|
D|-------------------------------------------------------|
A|-------------------------------------------------------|
E|-------------------------------------------------------|

e|--------------------------------------|-------|
B|------8---8/10--10-8-10-8---8-8-8-10--|-8-----|
G|-7--7---7-----------------------------|----7--|
D|--------------------------------------|-------|
A|--------------------------------------|-------|
E|--------------------------------------|-------|

  Rhythm is the same as before

OUTRO:
  Lead
e|-19--15-------------------------------------------------15--15-----15-|
B|---------15-17--15----------15----15/17-15----15-17--15--------17-----|
G|-------------------16----16----16-------------------------------------|
D|----------------------------------------------------------------------|
A|----------------------------------------------------------------------|
E|----------------------------------------------------------------------|

e|-19--15--15----15-------------19-15--19-15----15----15-15-15----|
B|------------17----17--15--15---------------17----------------17-|
G|----------------------------------------------------------------|
D|----------------------------------------------------------------|
A|----------------------------------------------------------------|
E|----------------------------------------------------------------|

e|----15-15-15-15-15-15--17-17-17-17-17-17--19-19-19-19-19-19--19-|----15--|
B|-17-------------------------------------------------------------|--------|
G|----------------------------------------------------------------|--------|
D|----------------------------------------------------------------|--------|
A|----------------------------------------------------------------|--------|
E|----------------------------------------------------------------|--------|

  Rhythm (listen to song for strumming patterns)
e|-3----0----0----2----|
B|-3----0----1----3----|
G|-4----2----0----2----|
D|-5----2----2----0----|
A|-5----2----3---------|
E|-3----0--------------| [x3]

                        [x3]
e|-3----0----0--|-10-10-10-10-10-10-|-10------------|
B|-3----0----1--|-10-10-10-10-10-10-|-10------------|
G|-4----2----0--|-11-11-11-11-11-11-|-11------------|
D|-5----2----2--|-12-12-12-12-12-12-|-12----12\---5-|
A|-5----2----3--|-12-12-12-12-12-12-|-12----12\---5-|
E|-3----0-------|-10-10-10-10-10-10-|-10----10\---3-|

End. Please rate! :D
Добавлено: 04.08.2015
Другие материалы по этой песне:
  • Аккорды и текст

Страница создана 04.08.2015
http://primanota.ru/hinds/between-cans-chords.htm
Привет, Гость.
Предлагаем пройти революционный курс по гитаре.
Подарок от PrimaNota.Ru, забирай!