PrimaNota.ru - самый крупный в мире бесплатный архив песенных текстов, аккордов, табулатур и нот


Hinder - Put That Record On - текст песни, таба, видео

Регистрация Запомнить меня
Войти через:  Facebook Google Twitter Vk Yandex Mail.ru

Hinder - Put That Record On - текст песни, таба, видео

Печатать
Просмотров: 227
Уроки эстрадного вокала в Санкт-Петербурге
Hinder TAB by 0andyinns0
Help form Reveny'U lead guitar (Tiger)
The SOLO bit, need to be listen to carefully
But that what I can do best for you guys out there
Most of the TAB are in time with the RHYTHM guitar!
Anyway hope you guys enjoyed the song and the TAB plz RATE!!!!
Pro-B with the TAB E-mail me at andy.inns@yahoo.com

Hinder - Put that Record On

INTRO:1

LEAD guitar

e|-/13-10------12----13-10-----12-----13---10-------10-------------|
B|--------12-----13--------12----13-------------12-----------------|
G|------------------------------------------------------12---10~~--|
D|-----------------------------------------------------------------|
A|-----------------------------------------------------------------|
E|-----------------------------------------------------------------|

e|-/13-10------12----13-10-----12-----13----------13h15h17---13~~--|
B|--------12-----13--------12----13--------------------------------|
G|-----------------------------------------------------------------|
D|-----------------------------------------------------------------|
A|-----------------------------------------------------------------|
E|-----------------------------------------------------------------|

RHYTHM guitar

    F                C                Bb              Bb

e|--1----------------0----------------1---------------1------------|
B|--1----------------1----------------3---------------3------------|
G|--2----------------0----------------3---------------3------------|
D|--3----------------2----------------3---------------3------------|x2
A|-------------------3----------------1---------------1------------|
E|-----------------------------------------------------------------|

:::::::::::::::::::::::::::::::::::::::::::::::::::::::::::::::::::::::::::::

VES: part 1

LEAD guitar

e|-----------------------------------------------------------------|
B|-----------------------------------------------------------------|
G|-----------------------------------------------------------------|
D|-----------------------------------------------------------------|x4
A|-----------------------------------------------------------------|
E|-----------------------------------------------------------------|

RHYTHM guitar

    F                C                Bb              Bb

e|--1----------------0----------------1---------------1------------|
B|--1----------------1----------------3---------------3------------|
G|--2----------------0----------------3---------------3------------|
D|--3----------------2----------------3---------------3------------|x2
A|-------------------3----------------1---------------1------------|
E|-----------------------------------------------------------------|

VES: part2

LEAD guitar

e|-----------------------------------------------------------------|
B|-----------------------------------------------------------------|
G|--10~~~----------------------------------------------------------|
D|------------------10---------------------------------------------|
A|---------------------12~~~~---------8~~~~------------------------|
E|-----------------------------------------------------------------|

e|-----------------------------------------------------------------|
B|-----------------------------------------------------------------|
G|--10~~~-----------------------------------10-12^(13)-10----------|
D|------------------10------------------------------------12-10----|
A|---------------------12~~~~---------8~~~~------------------------|
E|-----------------------------------------------------------------|

e|-----------------------------------------------------------------|
B|-----------------------------------------------------------------|
G|--10~~~----------------------------------------------------------|
D|------------------10----------------------10-12^(13)-10----10~~--|
A|---------------------12~~~~---------8~~~~---------------12-------|
E|-----------------------------------------------------------------|

e|-----------------------------------------------------------------|
B|------------------------------------------------------10---13~~~-|
G|------------------------------------------10----12---------------|
D|-12^(14)~~~--------------------8----10---------------------------|
A|------------------8----10----------------------------------------|
E|-----------------------------------------------------------------|

RHYTHM guitar

    F                C                Bb              Bb

e|--1----------------0----------------1---------------1------------|
B|--1----------------1----------------3---------------3------------|
G|--2----------------0----------------3---------------3------------|
D|--3----------------2----------------3---------------3------------|x4
A|-------------------3----------------1---------------1------------|
E|-----------------------------------------------------------------|

:::::::::::::::::::::::::::::::::::::::::::::::::::::::::::::::::::::::::::::

CHR:

LEAD guitar

e|-----------------------------------------------------------------|
B|-----------------------------------------------------------------|
G|-----------------------------------------------------------------|
D|-----------------------------------------------------------------|
A|-----------------------------------------------------------------|
E|-----------------------------------------------------------------|

e|-------------------------------------17^(19)-15-13----13~~~-----|
B|---------------------------------------------------15-----------|
G|----------------------------------------------------------------|
D|----------------------------------------------------------------|
A|----------------------------------------------------------------|
E|----------------------------------------------------------------|

e|-----------------------------------------------------------------|
B|-----------------------------------------------------------------|
G|-----------------------------------------------------------------|
D|-----------------------------------------------------------------|
A|-----------------------------------------------------------------|
E|-----------------------------------------------------------------|

e|-------------------------------------13-15^(17)-13----13h15p13--|
B|---------------------------------------------------15-----------|
G|----------------------------------------------------------------|
D|----------------------------------------------------------------|
A|----------------------------------------------------------------|
E|----------------------------------------------------------------|

RHYTHM guitar:

    F5               C5               Bb5              C5

e|-----------------------------------------------------------------|
B|-----------------------------------------------------------------|
G|-----------------------------------------------------------------|
D|--3----------------5-----------------3----------------5----------|
A|--3----------------5-----------------3----------------5----------|
E|--1----------------3-----------------1----------------3----------|

    D5               C5               Bb5              Bb5               x2

e|-----------------------------------------------------------------|
B|-----------------------------------------------------------------|
G|--7--------------------------------------------------------------|
D|--7----------------5-----------------3----------------3----------|
A|--5----------------5-----------------3----------------3----------|
E|-------------------3-----------------1----------------1----------|

:::::::::::::::::::::::::::::::::::::::::::::::::::::::::::::::::::::::::::::

INTRO:2

LEAD guitar

e|-/13-10------12----13-10-----12-----13----------------------------|
B|--------12-----13--------12----13---------------------------------|
G|--------------------------------------------12^(14)-10-------10~~-|
D|-------------------------------------------------------12-10------|
A|------------------------------------------------------------------|
E|------------------------------------------------------------------|

RHYTHM guitar

    F                C                Bb              Bb

e|--1----------------0----------------1---------------1------------|
B|--1----------------1----------------3---------------3------------|
G|--2----------------0----------------3---------------3------------|
D|--3----------------2----------------3---------------3------------|
A|-------------------3----------------1---------------1------------|
E|-----------------------------------------------------------------|

:::::::::::::::::::::::::::::::::::::::::::::::::::::::::::::::::::::::::::::

VES:2

LEAD guitar

e|----------------------------------------------------12------------|
B|-------------------------------------------------13---------------|
G|-------------------------------------------10-12-------12^-12^-10-|
D|------------------------------------------------------------------|
A|------------------------------------------------------------------|
E|------------------------------------------------------------------|

e|-------------------------------------------------13---13---13------|
B|-------------------------------------------13h15-15BU-15BU-15BU-13-|
G|-------------------------------------------------------------------|
D|-------------------------------------------------------------------|
A|-------------------------------------------------------------------|
E|-------------------------------------------------------------------|

e|--------------------------------------------------------------------|
B|------------------------------------------/13-------15^(17)---------|
G|----------------------------------------------15-12---------12-10~~-|
D|--------------------------------------------------------------------|
A|--------------------------------------------------------------------|
E|--------------------------------------------------------------------|

e|-------------------------------------------------------------------|
B|-------------------------------------------------------------------|
G|--12^(14)~~----10--------------------------------------------------|
D|-----------------------12------10----------------------------------|
A|---------------------------------------12------11------10------8---|
E|-------------------------------------------------------------------|


RHYTHM guitar

    F                C                Bb              Bb

e|--1----------------0----------------1---------------1------------|
B|--1----------------1----------------3---------------3------------|
G|--2----------------0----------------3---------------3------------|
D|--3----------------2----------------3---------------3------------|x4
A|-------------------3----------------1---------------1------------|
E|-----------------------------------------------------------------|
:::::::::::::::::::::::::::::::::::::::::::::::::::::::::::::::::::::::::::::

CHR:

LEAD guitar

e|-----------------------------------------------------------------|
B|-----------------------------------------------------------------|
G|-----------------------------------------------------------------|
D|-----------------------------------------------------------------|
A|-----------------------------------------------------------------|
E|-----------------------------------------------------------------|

e|-------------------------------------------15^(17)-13-15^(17)-13-|
B|-----------------------------------------13----------------------|
G|---------------------------------12-13-14------------------------|
D|-----------------------------------------------------------------|
A|-----------------------------------------------------------------|
E|-----------------------------------------------------------------|

e|-----------------------------------------------------------------|
B|-----------------------------------------------------------------|
G|-----------------------------------------------------------------|
D|-----------------------------------------------------------------|
A|-----------------------------------------------------------------|
E|-----------------------------------------------------------------|

e|-------------------------------------13-15^(17)-13----13h15p13--|
B|---------------------------------------------------15-----------|
G|----------------------------------------------------------------|
D|----------------------------------------------------------------|
A|----------------------------------------------------------------|
E|----------------------------------------------------------------|

RHYTHM guitar

    F5               C5               Bb5              C5

e|-----------------------------------------------------------------|
B|-----------------------------------------------------------------|
G|-----------------------------------------------------------------|
D|--3----------------5-----------------3----------------5----------|
A|--3----------------5-----------------3----------------5----------|
E|--1----------------3-----------------1----------------3----------|

    D5               C5               Bb5              Bb5               x2

e|-----------------------------------------------------------------|
B|-----------------------------------------------------------------|
G|--7--------------------------------------------------------------|
D|--7----------------5-----------------3----------------3----------|
A|--5----------------5-----------------3----------------3----------|
E|-------------------3-----------------1----------------1----------|

:::::::::::::::::::::::::::::::::::::::::::::::::::::::::::::::::::::::::::::

SOLO: (singing on the top)

e|----------------------------------------------------------------------|
B|----------------------------------------------------------------------|
G|---------10--------------------10----------10-----------10------------|
D|--10h12-----12p10----12~~-10------12p10-------12p10-12-----12p10-12---|
A|------------------12--------------------12----------------------------|
E|----------------------------------------------------------------------|

e|------------------------13-15^(17)15^(17)-15-15^(17)-13-15^(17)--15---|
B|------------------13h15-----------------------------------------------|
G|---------12h13h14-----------------------------------------------------|
D|----------------------------------------------------------------------|
A|-12-10----------------------------------------------------------------|
E|----------------------------------------------------------------------|

e|-13-------------------------------------------------------------------|
B|----15-13-------------------------------------------------------------|
G|----------14-13-12-10-12~~--10----10----------------------------------|
D|-------------------------------------12-10----------------------------|
A|-------------------------------------------12-11-10h11h12-------------|
E|----------------------------------------------------------------------|

e|-13-10---------13-10----10------15^(17)-15-15^(17) 17^(19)------------|
B|-------13-10---------13-----------------------------------------------|
G|----------------------------------------------------------------------|
D|----------------------------------------------------------------------|
A|----------------------------------------------------------------------|
E|----------------------------------------------------------------------|

RHYTHM guitar

    F5               C5               Bb5              C5

e|-----------------------------------------------------------------|
B|-----------------------------------------------------------------|
G|-----------------------------------------------------------------|
D|--3----------------5-----------------3----------------5----------|
A|--3----------------5-----------------3----------------5----------|
E|--1----------------3-----------------1----------------3----------|

    D5               C5               Bb5              Bb5               x2

e|-----------------------------------------------------------------|
B|-----------------------------------------------------------------|
G|--7--------------------------------------------------------------|
D|--7----------------5-----------------3----------------3----------|
A|--5----------------5-----------------3----------------3----------|
E|-------------------3-----------------1----------------1----------|

:::::::::::::::::::::::::::::::::::::::::::::::::::::::::::::::::::::::::::::

INTRO:3

LEAD guitar

e|-/13-10------12----13-10-----12-----13---10-------10-------------|
B|--------12-----13--------12----13-------------12-----------------|
G|------------------------------------------------------12---10~~--|
D|-----------------------------------------------------------------|
A|-----------------------------------------------------------------|
E|-----------------------------------------------------------------|

e|-/13-10------12----13-10-----12-----13----------13h15h17---13~~--|
B|--------12-----13--------12----13--------------------------------|
G|-----------------------------------------------------------------|
D|-----------------------------------------------------------------|
A|-----------------------------------------------------------------|
E|-----------------------------------------------------------------|

RHYTHM guitar

    F                C                Bb              Bb

e|--1----------------0----------------1---------------1------------|
B|--1----------------1----------------3---------------3------------|
G|--2----------------0----------------3---------------3------------|
D|--3----------------2----------------3---------------3------------|x2
A|-------------------3----------------1---------------1------------|
E|-----------------------------------------------------------------|
Добавлено: 17.06.2012
Другие материалы по этой песне:

Страница создана 12.03.2012
http://primanota.ru/hinder/put-that-record-on-chords.htm
Привет, Гость.
Предлагаем пройти революционный курс по гитаре.
Подарок от PrimaNota.Ru, забирай!