PrimaNota.ru - самый крупный в мире бесплатный архив песенных текстов, аккордов, табулатур и нот


Hinder - Lay Me Down - таба, видео

Регистрация Запомнить меня
Войти через:  Facebook Google Twitter Vk Yandex Mail.ru

Hinder - Lay Me Down - таба, видео

Печатать
Просмотров: 94
Уроки эстрадного вокала в Санкт-Петербурге
------------------------------------------------------------------------------
                             Lay Me Down - Hinder
-------------------------------------------------------------------------------
Tabbed by:Phillip
Email:Cheetaclawsfl@yahoo.com

Tuning:Drop D

This is a song off the 2003 Far From Close CD.  It is hard to find because they only
5,000 copies.

Update:  I fixed all the errors.....the whole tab.  I was out of tune when I tabbed, but 
a decent tab.


Guitar 1
e|---------------------------------------------------------------------------|
B|-16------------------------------------------------------------------------|
G|----13---------------------------------------------------------------------|
D|---------------------------------------------------------------------------|
A|-------11------------------------------------------------------------------|
E|-------13------------------------------------------------------------------|
Lead guitar does this riff once and then second guitar comes in
e|---------------------------------------------------------------------------|
B|---------------------------------------------------------------------------|
G|---------------------------------------------------------------------------|
D|-4-4-x-x-x-0-0-x-x-x-2-2-x-x-x-4-2-0-2-2-----------------------------------|
A|-4-4-x-x-x-0-0-x-x-x-2-2-x-x-x-4-2-0-2-2-----------------------------------|
E|-4-4-x-x-x-0-0-x-x-x-2-2-x-x-x-4-2-0-2-2-----------------------------------|
2nd time end like this, then the verse is the same palm muted.
e|---------------------------------------------------------------------------|
B|---------------------------------------------------------------------------|
G|---------------------------------------------------------------------------|
D|-4-2-0-4-2-0-4-2-0---------------------------------------------------------|
A|-4-2-0-4-2-0-4-2-0---------------------------------------------------------|
E|-4-2-0-4-2-0-4-2-0---------------------------------------------------------|

Guitar 1 chorus
e|---------------------------------------------------------------------------|
B|---------------------------------------------------------------------------|
G|-11-11-11-11-11-11-11------------------------------------------------------|
D|-11-11-11-11-11-11-11-14-14-14-14-14-14-14-12-12-12-12-12-12-12-14-14-14-14|
A|-9--9--9--9---9--9--9-14-14-14-14-14-14-14-12-12-12-12-12-12-12-14-14-14-14|
E|----------------------14-14-14-14-14-14-14-12-12-12-12-12-12-12-14-14-14-14|

Guitar 2 Chorus
e|---------------------------------------------------------------------------|
B|---------------------------------------------------------------------------|
G|---------------------------------------------------------------------------|
D|-4-4-4-4-4-4-4-2-2-2-2-2-2-2-0-0-0-0-0-0-0-2-2-2-2-2-2-2-------------------|
A|-4-4-4-4-4-4-4-2-2-2-2-2-2-2-0-0-0-0-0-0-0-2-2-2-2-2-2-2-------------------|
E|-4-4-4-4-4-4-4-2-2-2-2-2-2-2-0-0-0-0-0-0-0-2-2-2-2-2-2-2-------------------|

Bridge/outro
e|---------------------------------------------------------------------------|
B|---------------------------------------------------------------------------|
G|---------------------------------------------------------------------------|
D|-4-4-4-4-2-4-4-4-4-4p0-----------------------------------------------------|
A|-4-4-4-4-2-4-4-4-4-4p0-----------------------------------------------------|
E|-4-4-4-4-2-4-4-4-4-4p0-----------------------------------------------------|


That's it, pretty easy song and fun to play!

| /  slide up
| \  slide down
| h  hammer-on
| p  pull-off
| ~  vibrato
| +  harmonic
| x  Mute note
===============================================================================
Добавлено: 29.11.2013
Другие материалы по этой песне:
  • Аккорды и текст

Страница создана 29.11.2013
http://primanota.ru/hinder/lay-me-down-chords.htm
Привет, Гость.
Предлагаем пройти революционный курс по гитаре.
Подарок от PrimaNota.Ru, забирай!