PrimaNota.ru - самый крупный в мире бесплатный архив песенных текстов, аккордов, табулатур и нот


Hinder - Bed Of Roses - таба, видео

Регистрация Запомнить меня
Войти через:  Facebook Google Twitter Vk Yandex Mail.ru

Hinder - Bed Of Roses - таба, видео

Печатать
Просмотров: 126
Авторы музыки: Jon Bon Jovi
Авторы текста: Jon Bon Jovi
-------------------------------------------------------------------------------
			     Bed of Roses - Hinder
-------------------------------------------------------------------------------
Tabbed by:Phillip
Email:Cheetaclawsfl@yahoo.com

Tuning:standard

This song was released on the second version of extreme behavior, its a Bon Jovi cover


update: Just fixed a couple of things with the chords that are being played.

Intro
e|----------1------------1----------1----------1------------------------------------|
B|-3-3-3-----3---3-3-3----3----------1----------1-----------------------------------|
G|-3-3-3------3--3-3-3-----3--2-2-2---2--2-2-2---2----------------------------------|
D|-3-3-3---------3-3-3--------3-3-3------3-3-3--------------------------------------|
A|-1-1-1---------1-1-1--------3-3-3------3-3-3--------------------------------------|
E|----------------------------1-1-1------1-1-1--------------------------------------|


Play once alone then while he sings this:
Sitting here wasted and wounded
At this old piano
Trying hard to capture
The moment
This morning I don't know

Verse
e|-0-0-0-0-1-1-1-1-1-1-1-1-1-1-1-1-1-1-1-1-1----------1----------1------------------------------|
B|-1-1-1-1-3-3-3-3-3-1-1-1-1-1-1-1-1-1-1-1-1-1-3-3-3---3--3-3-3---3-----------------------------|
G|-2-2-2-2-3-3-3-3-3-2-2-2-2-2-2-2-2-2-2-2-2-2-3-3-3----3-3-3-3----3----------------------------|
D|-2-2-2-2-3-3-3-3-3-2-2-2-2-2-2-2-2-2-2-2-2-2-3-3-3------3-3-3---------------------------------|
A|-0-0-0-0-1-1-1-1-1-3-3-3-3-3-3-3-3-3-3-3-3-3-1-1-1------1-1-1---------------------------------|
E|-------------------1-1-1-1-1-1-1-1-1-1-1-1-1--------------------------------------------------|

Play that while he says:
Cause a bottle of vodka
Is still lodged in my head
And some blond gave me nightmares
I think that she's still in my bed

verse
e|1-1-1-1-1-1-0-0-0-0-0-1-1-1-1-1-1-1--|
B|3-3-3-3-3-3-1-1-1-1-1-1-1-1-1-1-1-1--|
G|3-3-3-3-3-3-0-0-0-0-0-2-2-2-2-2-2-2--|
D|3-3-3-3-3-3-2-2-2-2-2-3-3-3-3-3-3-3--|
A|1-1-1-1-1-1-3-3-3-3-3-3-3-3-3-3-3-3--|
E|1-1-1-1-1-1-----------1-1-1-1-1-1-1--|

As I dream about movies they won't make of me when I'm dead

(intro-play chords without picking the notes, listen to the song and you will know what i mean)

With an ironclad fist I wake up and
French kiss the morning
While some marching band keeps
Its own beat in my head
While we're talking

(verse)

About all of the things that I long to believe
About love and the truth and
What you mean to me
And the truth is baby you're all that I need

Chorus
e|1-1-1-0-0-0-1-1-1-1-1-1-1-1-1-1-1----1-1-1-1-1-1-1-1----1-0-1--|
B|3-3-3-1-1-1-3-3-3-1-1-1-1-1-1-1-1----3-3-3-3-1-1-1-1----3-1-3--|
G|2-2-2-0-0-0-3-3-3-2-2-2-2-2-2-2-2----3-3-3-3-2-2-2-2----2-0-3--|
D|0-0-0-2-2-2-3-3-3-3-3-3-3-3-3-3-3-2x-3-3-3-3-3-3-3-3-2x-0-2-3--|
A|------3-3-3-1-1-1-3-3-3-3-3-3-3-3----1-1-1-1-3-3-3-3------3-1--|
E|------------------1-1-1-1-1-1-1-1------------1-1-1-1-----------|

I want to lay you down in a bed of roses
For tonight I sleep on a bed of nails
I want to be just as close as the Holy Ghost is
And lay you down on a bed of roses

Intro (once again, just play the chords)
Well I'm so far away
That each step that I take is on my way home
A king's ransom in dimes I'd given each night
Just to see through this pay phone

Verse
Still I run out of time
Or it's hard to get through
Till the bird on the wire flies me back to you
I'll just close my eyes and whisper,
Baby blind love is true

Chorus

Bridge
e|1-1-1-1-1-0-0-0-0-0-1-1-1-1-1-1-1-1-1-1-1-1-1-1-1-1-1-1-1-1-1-0-0-0-0-1-1-1--|
B|3-3-3-3-3-1-1-1-1-1-1-1-1-1-1-1-1-1-1-1-3-3-3-3-3-3-3-3-3-3-3-1-1-1-1-1-1-1--|
G|3-3-3-3-3-0-0-0-0-0-2-2-2-2-2-2-2-2-2-2-3-3-3-3-3-3-3-3-3-3-3-0-0-0-0-2-2-2--|
D|3-3-3-3-3-2-2-2-2-2-3-3-3-3-3-3-3-3-3-3-3-3-3-3-3-3-3-3-3-3-3-2-2-2-2-3-3-3--|
A|1-1-1-1-1-3-3-3-3-3-3-3-3-3-3-3-3-3-3-3-1-1-1-1-1-1-1-1-1-1-1-3-3-3-3-3-3-3--|
E|--------------------1-1-1-1-1-1-1-1-1-1-------------------------------1-1-1--|

The hotel bar hangover whiskey's gone dry
The barkeeper's wig's crooked
And she's giving me the eye
I might have said yeah
But I laughed so hard I think I died

Chorus (sorry do not know solo)

Intro

Now as you close your eyes
Know I'll be thinking about you
While my mistress she calls me
To stand in her spotlight again
Tonight I won't be alone
But you know that don't
Mean I'm not lonely

First 3 chords of verse (listen to song)

I've got nothing to prove
For it's you that I'd die to defend

Then do the chorus twice

and thats it.  If you have questions you can email me, it took me awhile to do this, so have fun!

| /  slide up
| \  slide down
| h  hammer-on
| p  pull-off
| ~  vibrato
| +  harmonic
| x  Mute note
===============================================================================
Добавлено: 15.08.2013
Другие материалы по этой песне:
  • Аккорды и текст

Страница создана 15.08.2013
http://primanota.ru/hinder/bed-of-roses-chords.htm
Привет, Гость.
Предлагаем пройти революционный курс по гитаре.
Подарок от PrimaNota.Ru, забирай!