PrimaNota.ru - самый крупный в мире бесплатный архив песенных текстов, аккордов, табулатур и нот


Himsa - When Midnight Breaks - текст песни, таба, видео

Регистрация Запомнить меня
Войти через:  Facebook Google Twitter Vk Yandex Mail.ru

Himsa - When Midnight Breaks - текст песни, таба, видео

Печатать
Просмотров: 138
When Midnight Breaks (solo) - Himsa

tabbed by: Kyle Andrus

C G C F A D

b-bend to indicated fret number
v-vibrato
h-hammer on
p-pull off
t-tap
\-slide down
R-return bend
(#)b(#)vRv(#)-return bend while giving it a litte vibrato


|-----------------------------------14b16vRv14-16----|
|-14b16v-14h16p14-14-16v-14-14h15h16-----------------|
|----------------------------------------------------|
|----------------------------------------------------|
|----------------------------------------------------|
|----------------------------------------------------|

these are trills just listen to the song and you'll get it
|-----------------------------------|
|-----------------------------------|
|-12h13p12h13-13h14p13h14-13b-------|
|-----------------------------------|
|-----------------------------------|
|-----------------------------------|

tapping (not sure how many times he does each one
         again just listen to it)
|-------------------t18p11h14-(repeat)-19p11h14-(repeat)--|
|---------------------------------------------------------|
|-t19p12h15-(repeat)---------------------^^^--------------|
|---------------------------------this-one-last-2x-as-----|
|-----------------------------------long-as-the-others----|
|---------------------------------------------------------|

not sure about this bit
|-21b22-21b22v-20h21h22v---------------16-14v----------|
|------------------------14b16-14h15h16------16p14-16--|
|------------------------------------------------------|
|------------------------------------------------------|
|------------------------------------------------------|
|------------------------------------------------------|

|------------------------------------------|
|------------------------------------------|
|-12h13p12h13h14v-12h13p12h14-12h13p12-----|
|-------------------------------------12v--|
|------------------------------------------|
|------------------------------------------|

more tapping
|-t17p10h13-(repeat)-t18p10h13-(repeat)-t18p10h13p10v\--|
|-----------------------------------------------^^^-----|
|------------------------------------you-do-this-little-|
|-------------------------------------thing-on-the-last-|
|-----------------------------------------tap-sequence--|
|-------------------------------------------------------|
Добавлено: 20.03.2012
Другие материалы по этой песне:
  • Аккорды и текст

Страница создана 20.03.2012
http://primanota.ru/himsa/when-midnight-breaks-chords.htm
Привет, Гость.
Предлагаем пройти революционный курс по гитаре.
Подарок от PrimaNota.Ru, забирай!