PrimaNota.ru - самый крупный в мире бесплатный архив песенных текстов, аккордов, табулатур и нот


Himsa - Sleezevil - текст песни, таба, видео

Регистрация Запомнить меня
Войти через:  Facebook Google Twitter Vk Yandex Mail.ru

Himsa - Sleezevil - текст песни, таба, видео

Печатать
Просмотров: 177
Уроки эстрадного вокала в Санкт-Петербурге
this was easy enough



Gtr I (C G C F A D) - LEAD
Gtr II (C G C F A D) - RHYTHM/HARMONY


  Q=178
 4/4
  Gtr I
                   |-3-|
  H    H      H    Q Q Q   W          W
|-----------|------------|----------|------|
|-----------|------------|----------|------|
|-----------|------------|----------|------|
|-----------|------------|----------|------|
|-3----6----|-9----8-9-8-|-6--------|-5----|
|-3----6----|-9----8-9-8-|-6--------|-5----|
|
| Gtr II
|                  |-3-|
| H    H      H    Q Q Q   W          W
|-----------|------------|----------|------|
|-----------|------------|----------|------|
|-----------|------------|----------|------|
|-----------|------------|----------|------|
|-3----6----|-9----8-9-8-|-6--------|-5----|
|-3----6----|-9----8-9-8-|-6--------|-5----|


                   |-3-|
  H    H      H    Q Q Q   W          Q  Q  Q  Q
|-----------|------------|----------|--------------|
|-----------|------------|----------|--------------|
|-----------|------------|----------|--------------|
|-----------|------------|----------|--------------|
|-3----6----|-9----8-9-8-|-6--------|-5--6--8--9---|
|-3----6----|-9----8-9-8-|-6--------|-5--6--8--9---|
|
|                  |-3-|
| H    H      H    Q Q Q   W          Q  Q  Q  Q
|-----------|------------|----------|--------------|
|-----------|------------|----------|--------------|
|-----------|------------|----------|--------------|
|-----------|------------|----------|--------------|
|-3----6----|-9----8-9-8-|-6--------|-5--6--8--9---|
|-3----6----|-9----8-9-8-|-6--------|-5--6--8--9---|


  S S E E E E E E E    E  E E E E E Q
|-------------------|------------------|
|-------------------|------------------|
|-------------------|------------------|
|-------8---7-----8-|-----7-----5-7-8--|
|-------------------|------------------|
|-5-5-5---5---5-5---|--5----5-5--------|
|
| W                   +W
|-------------------|------------------|
|-------------------|------------------|
|-------------------|------------------|
|-------------------|------------------|
|-5-----------------|-(5)--------------|
|-5-----------------|-(5)--------------|


  S S E  E E  E E E  E    E   E E E E  E  Q
|----------------------|---------------------|
|----------------------|---------------------|
|----------------------|---------------------|
|-------11---10-----11-|-----10-----8-11-10--|
|----------------------|---------------------|
|-8-8-8----8----8-8----|--8-----8-8----------|
|
| W                      +W
|----------------------|---------------------|
|----------------------|---------------------|
|----------------------|---------------------|
|----------------------|---------------------|
|-8--------------------|-(8)-----------------|
|-8--------------------|-(8)-----------------|


  S S E E E E E E E    E  E E E E E Q    W          W
|-------------------|------------------|----------|------|
|-------------------|------------------|----------|------|
|-------------------|------------------|----------|------|
|-------8---7-----8-|-----7-----5-7-8--|-3--------|------|
|-------------------|------------------|-4--------|-4----|
|-5-5-5---5---5-5---|--5----5-5--------|----------|-4----|
|
| W                   +W                 W          W
|-------------------|------------------|----------|------|
|-------------------|------------------|----------|------|
|-------------------|------------------|----------|------|
|-------------------|------------------|-3--------|------|
|-5-----------------|-(5)--------------|-4--------|-4----|
|-5-----------------|-(5)--------------|----------|-4----|


  S S E E E E E E E   E E E E E E Q
|-------------------|----------------|
|-------------------|----------------|
|-------------------|----------------|
|-------8---7-----8-|---7-----5-7-8--|
|-------------------|----------------|
|-5-5-5---5---5-5---|-5---5-5--------|
|
| S S E E E E E E E   E E E E E E Q
|-------------------|----------------|
|-------------------|----------------|
|-------------------|----------------|
|-------------------|----------------|
|-------8---7-----8-|---7-----5-7-8--|
|-5-5-5---5---5-5---|-5---5-5--------|


  S S E  E E  E E E  E   E  E E E E  E  Q
|----------------------|-------------------|
|----------------------|-------------------|
|----------------------|-------------------|
|-------11---10-----11-|---10-----8-11-10--|
|----------------------|-------------------|
|-8-8-8----8----8-8----|-8----8-8----------|
|
| S S E  E E  E E E  E   E  E E E E  E  Q
|----------------------|-------------------|
|----------------------|-------------------|
|----------------------|-------------------|
|----------------------|-------------------|
|-------11---10-----11-|---10-----8-11-10--|
|-8-8-8----8----8-8----|-8----8-8----------|


  S S E E E E E E E   E E E E E E E E   +W           W
|-------------------|-----------------|------------|------|
|-------------------|-----------------|------------|------|
|-------------------|-----------------|------------|------|
|-------8---7-----8-|---7-----5-7-8-3-|-(3)--------|------|
|-------------------|---------------4-|-(4)--------|-4----|
|-5-5-5---5---5-5---|-5---5-5---------|------------|-4----|
|
| S S E E E E E E E   E E E E E E E E   +W           W
|-------------------|-----------------|------------|------|
|-------------------|-----------------|------------|------|
|-------------------|-----------------|------------|------|
|-------------------|---------------3-|-(3)--------|------|
|-------8---7-----8-|---7-----5-7-8-4-|-(4)--------|-4----|
|-5-5-5---5---5-5---|-5---5-5---------|------------|-4----|


    S S E S S E S S E S S E   S S E S S E E E E E
||--------------------------|------------------------|
||o-------------------------|------------------------|
||--------------------------|------------------------|
||--------------------------|------------------------|
||o-------------------------|------------------------|
||--5-5-5-5-5-5-5-5-5-5-5-5-|-5-5-5-5-5-5-6-5-6-8----|
|
|   S S E S S E S S E S S E   S S E S S E E E E E
||--------------------------|------------------------|
||o-------------------------|------------------------|
||--------------------------|------------------------|
||--------------------------|------------------------|
||o-------------------------|------------------------|
||--5-5-5-5-5-5-5-5-5-5-5-5-|-5-5-5-5-5-5-6-5-6-8----|


  S S E S S E S S E S S E   H    H
|-------------------------|------------||
|-------------------------|-----------o||
|-------------------------|------------||
|-------------------------|-3----------||
|-------------------------|-4----4----o||
|-5-5-5-5-5-5-5-5-5-5-5-5-|------4-----||
|
| S S E S S E S S E S S E   H    H
|-------------------------|------------||
|-------------------------|-----------o||
|-------------------------|------------||
|-------------------------|-3----------||
|-------------------------|-4----4----o||
|-5-5-5-5-5-5-5-5-5-5-5-5-|------4-----||


  Q=178
 4/4
  Gtr I
                   |-3-|
  H    H      H    Q Q Q   W          W
|-----------|------------|----------|------|
|-----------|------------|----------|------|
|-----------|------------|----------|------|
|-----------|------------|----------|------|
|-3----6----|-9----8-9-8-|-6--------|-5----|
|-3----6----|-9----8-9-8-|-6--------|-5----|
|
| Gtr II
|                  |-3-|
| H    H      H    Q Q Q   W          W
|-----------|------------|----------|------|
|-----------|------------|----------|------|
|-----------|------------|----------|------|
|-----------|------------|----------|------|
|-3----6----|-9----8-9-8-|-6--------|-5----|
|-3----6----|-9----8-9-8-|-6--------|-5----|


                   |-3-|
  H    H      H    Q Q Q   W          Q  Q  Q  Q
|-----------|------------|----------|--------------|
|-----------|------------|----------|--------------|
|-----------|------------|----------|--------------|
|-----------|------------|----------|--------------|
|-3----6----|-9----8-9-8-|-6--------|-5--6--8--9---|
|-3----6----|-9----8-9-8-|-6--------|-5--6--8--9---|
|
|                  |-3-|
| H    H      H    Q Q Q   W          Q  Q  Q  Q
|-----------|------------|----------|--------------|
|-----------|------------|----------|--------------|
|-----------|------------|----------|--------------|
|-----------|------------|----------|--------------|
|-3----6----|-9----8-9-8-|-6--------|-5--6--8--9---|
|-3----6----|-9----8-9-8-|-6--------|-5--6--8--9---|


    S S E E E E E E E   E E E E E E Q
||--------------------|----------------|
||o-------------------|----------------|
||--------------------|----------------|
||--------8---7-----8-|---7-----5-7-8--|
||o-------------------|----------------|
||--5-5-5---5---5-5---|-5---5-5--------|
|
|   S S E E E E E E E   E E E E E E Q
||--------------------|----------------|
||o-------------------|----------------|
||--------------------|----------------|
||--------------------|----------------|
||o-------8---7-----8-|---7-----5-7-8--|
||--5-5-5---5---5-5---|-5---5-5--------|


  S S E  E E  E E E  E   E  E E E E  E  Q
|----------------------|------------------|
|----------------------|------------------|
|----------------------|------------------|
|-------11---10-----11-|---10-----8-11-10-|
|----------------------|------------------|
|-8-8-8----8----8-8----|-8----8-8---------|
|
| S S E  E E  E E E  E   E  E E E E  E  Q
|----------------------|------------------|
|----------------------|------------------|
|----------------------|------------------|
|----------------------|------------------|
|-------11---10-----11-|---10-----8-11-10-|
|-8-8-8----8----8-8----|-8----8-8---------|


  S S E E E E E E E   E E E E E E E E   +W           W
|-------------------|-----------------|------------|-------||
|-------------------|-----------------|------------|------o||
|-------------------|-----------------|------------|-------||
|-------8---7-----8-|---7-----5-7-8-3-|-(3)--------|-------||
|-------------------|---------------4-|-(4)--------|-4----o||
|-5-5-5---5---5-5---|-5---5-5---------|------------|-4-----||
|
| S S E E E E E E E   E E E E E E E E   +W           W
|-------------------|-----------------|------------|-------||
|-------------------|-----------------|------------|------o||
|-------------------|-----------------|------------|-------||
|-------------------|---------------3-|-(3)--------|-------||
|-------8---7-----8-|---7-----5-7-8-4-|-(4)--------|-4----o||
|-5-5-5---5---5-5---|-5---5-5---------|------------|-4-----||


  Q.   E +H        E  E E Q  E E E    Q.   E +H         E  E E Q  E E E
|---------------|------------------|----------------|-------------------|
|---------------|------------------|----------------|----------6--------|
|-3----2-(2)----|--3--2-3-5--3-2-3-|--6----5-(5)----|---6--5-6----6-5-6-|
|---------------|------------------|----------------|-------------------|
|---------------|------------------|----------------|-------------------|
|---------------|------------------|----------------|-------------------|
|
| TP               TP                 TP                TP
| W               +W                  W                +W
|---------------|------------------|----------------|-------------------|
|---------------|------------------|----------------|-------------------|
|---------------|------------------|----------------|-------------------|
|---------------|------------------|----------------|-------------------|
|---------------|------------------|----------------|-------------------|
|-5-------------|-(5)--------------|-11-------------|-(11)--------------|


  Q.   E +H        E  E E Q  E E E    Q.   E +H       E E E  Q  E Q
|---------------|------------------|----------------|----------------|
|---------------|------------------|----------------|-------11-------|
|-3----2-(2)----|--3--2-3-5--3-2-3-|--9----8-(8)----|-9-8-9-----9-8--|
|---------------|------------------|----------------|----------------|
|---------------|------------------|----------------|----------------|
|---------------|------------------|----------------|----------------|
|
| TP               TP
| W               +W                  W               W
|---------------|------------------|----------------|----------------|
|---------------|------------------|----------------|----------------|
|---------------|------------------|----------------|----------------|
|---------------|------------------|----------------|----------------|
|---------------|------------------|-11-------------|-7--------------|
|-8-------------|-(8)--------------|-11-------------|-7--------------|


  E E Q   Q   Q     Q   Q   E E E E   E E Q   Q   Q     E E E E E E E E
|-----------------|-----------------|-----------------|-----------------|
|-----------------|-----------------|-----------------|-----------------|
|-----------------|-----------------|-----------------|-----------------|
|-----------------|-----------------|-----------------|-----------------|
|-6-5-------------|-----------6---6-|-5---------------|-----------------|
|-6-5-------------|-----------6---6-|-5---------------|-6-5-6-8-9-8-6-5-|
|
| E E E E E E E E   E E E E E E E E   E E E E E E E E   E E E E E E E E
|-----------------|-----------------|-----------------|-----------------|
|-----------------|-----------------|-----------------|-----------------|
|-----------------|-----------------|-----------------|-----------------|
|-----------------|-----------------|-----------------|-----------------|
|-6-5-5-5-5-5-5-5-|-5-5-5-5-5-6---6-|-5-5-5-5-5-5-5-5-|-----------------|
|-6-5-5-5-5-5-5-5-|-5-5-5-5-5-6---6-|-5-5-5-5-5-5-5-5-|-6-5-6-8-9-8-6-5-|


    E E E E E E E E   E E E E E E E E   E E E E E E E E   E E E E E E E E
||------------------|-----------------|-----------------|----------------|
||o-----------------|-----------------|-----------------|----------------|
||------------------|-----------------|-----------------|----------------|
||------------------|-----------------|-----------------|----------------|
||o-6-5-5-5-5-5-5-5-|-5-5-5-5-5-6---6-|-5-5-5-5-5-5-5-5-|----------------|
||--6-5-5-5-5-5-5-5-|-5-5-5-5-5-6---6-|-5-5-5-5-5-5-5-5-|-6-5-6-8-9-8-6-5|
|
|   E E E E E E E E   E E E E E E E E   E E E E E E E E   E E E E E E E E
||------------------|-----------------|-----------------|----------------|
||o-----------------|-----------------|-----------------|----------------|
||------------------|-----------------|-----------------|----------------|
||------------------|-----------------|-----------------|----------------|
||o-6-5-5-5-5-5-5-5-|-5-5-5-5-5-6---6-|-5-5-5-5-5-5-5-5-|----------------|
||--6-5-5-5-5-5-5-5-|-5-5-5-5-5-6---6-|-5-5-5-5-5-5-5-5-|-6-5-6-8-9-8-6-5|


  E E E E E E E E   E E E E E E E E   E E E E E E E E   E E E  E  E  E E E
|-----------------|-----------------|-----------------|--------------------|
|-----------------|-----------------|-----------------|--------------------|
|-----------------|-----------------|-----------------|--------------------|
|-----------------|-----------------|-----------------|--------------------|
|-6-5-5-5-5-5-5-5-|-5-5-5-5-5-6---6-|-5-5-5-5-5-5-5-5-|--------------------|
|-6-5-5-5-5-5-5-5-|-5-5-5-5-5-6---6-|-5-5-5-5-5-5-5-5-|-6-5-6--8--9--8-6-5-|
|
| E E E E E E E E   E E E E E E E E   E E E E E E E E   E E E  E  E  E E E
|-----------------|-----------------|-----------------|--------------------|
|-----------------|-----------------|-----------------|--------------------|
|-----------------|-----------------|-----------------|--------------------|
|-----------------|-----------------|-----------------|--------------------|
|-6-5-5-5-5-5-5-5-|-5-5-5-5-5-6---6-|-5-5-5-5-5-5-5-5-|--------------------|
|-6-5-5-5-5-5-5-5-|-5-5-5-5-5-6---6-|-5-5-5-5-5-5-5-5-|-9-8-9-11-12-11-9-8-|


  H    H      H    E Q  E   H    H       E E E E  E  E E  E
|-----------|-------------|-----------|---------------------|
|-----------|-------------|-----------|---------------------|
|-----------|-------------|-----------|---------------------|
|-----------|-------------|-----------|---------------------|
|-5----6----|-8----9----6-|-8----9----|---------------------|
|-5----6----|-8----9----6-|-8----9----|-11-9-8-9-12-11-9-11-|
|
| H    H      H    E Q  E   H    H       E E E E  E  E E  E
|-----------|-------------|-----------|---------------------|
|-----------|-------------|-----------|---------------------|
|-----------|-------------|-----------|---------------------|
|-----------|-------------|-----------|---------------------|
|-5----6----|-8----9----6-|-8----9----|---------------------|
|-5----6----|-8----9----6-|-8----9----|-11-9-8-9-12-11-9-11-|


  H    H      H    E Q  E   H    H       E E E E  H
|-----------|-------------|-----------|-----------------||
|-----------|-------------|-----------|----------------o||
|-----------|-------------|-----------|-----------------||
|-----------|-------------|-----------|-----------------||
|-5----6----|-8----9----6-|-8----9----|----------------o||
|-5----6----|-8----9----6-|-8----9----|-11-9-8-9-12-----||
|
| H    H      H    E Q  E   H    H       E E E E  H
|-----------|-------------|-----------|-----------------||
|-----------|-------------|-----------|----------------o||
|-----------|-------------|-----------|-----------------||
|-----------|-------------|-----------|-----------------||
|-5----6----|-8----9----6-|-8----9----|----------------o||
|-5----6----|-8----9----6-|-8----9----|-11-9-8-9-12-----||


 4/4
  Gtr I
                   |-3-|
  H    H      H    Q Q Q   W          W
|-----------|------------|----------|------|
|-----------|------------|----------|------|
|-----------|------------|----------|------|
|-----------|------------|----------|------|
|-3----6----|-9----8-9-8-|-6--------|-5----|
|-3----6----|-9----8-9-8-|-6--------|-5----|
|
| Gtr II
|                  |-3-|
| H    H      H    Q Q Q   W          W
|-----------|------------|----------|------|
|-----------|------------|----------|------|
|-----------|------------|----------|------|
|-----------|------------|----------|------|
|-3----6----|-9----8-9-8-|-6--------|-5----|
|-3----6----|-9----8-9-8-|-6--------|-5----|


                   |-3-|
  H    H      H    Q Q Q   W          Q  Q  Q  Q
|-----------|------------|----------|--------------|
|-----------|------------|----------|--------------|
|-----------|------------|----------|--------------|
|-----------|------------|----------|--------------|
|-3----6----|-9----8-9-8-|-6--------|-5--6--8--9---|
|-3----6----|-9----8-9-8-|-6--------|-5--6--8--9---|
|
|                  |-3-|
| H    H      H    Q Q Q   W          Q  Q  Q  Q
|-----------|------------|----------|--------------|
|-----------|------------|----------|--------------|
|-----------|------------|----------|--------------|
|-----------|------------|----------|--------------|
|-3----6----|-9----8-9-8-|-6--------|-5--6--8--9---|
|-3----6----|-9----8-9-8-|-6--------|-5--6--8--9---|


    Q.   E +H        E  E E Q  E E E    Q.   E +H         E  E E Q  E E E
||----------------|------------------|----------------|------------------|
||o---------------|------------------|----------------|----------6-------|
||--3----2-(2)----|--3--2-3-5--3-2-3-|--6----5-(5)----|---6--5-6----6-5-6|
||----------------|------------------|----------------|------------------|
||o---------------|------------------|----------------|------------------|
||----------------|------------------|----------------|------------------|
|
|   TP               TP                 TP                TP
|   W               +W                  W                +W
||----------------|------------------|----------------|------------------|
||o---------------|------------------|----------------|------------------|
||----------------|------------------|----------------|------------------|
||----------------|------------------|----------------|------------------|
||o---------------|------------------|----------------|------------------|
||--5-------------|-(5)--------------|-11-------------|-(11)-------------|


  Q.   E +H        E  E E Q  E E E    Q.   E +H       E E E  Q  E Q
|---------------|------------------|----------------|-----------------||
|---------------|------------------|----------------|-------11-------o||
|-3----2-(2)----|--3--2-3-5--3-2-3-|--9----8-(8)----|-9-8-9-----9-8---||
|---------------|------------------|----------------|-----------------||
|---------------|------------------|----------------|----------------o||
|---------------|------------------|----------------|-----------------||
|
| TP               TP
| W               +W                  W               W
|---------------|------------------|----------------|-----------------||
|---------------|------------------|----------------|----------------o||
|---------------|------------------|----------------|-----------------||
|---------------|------------------|----------------|-----------------||
|---------------|------------------|-11-------------|-7--------------o||
|-8-------------|-(8)--------------|-11-------------|-7---------------||


    S S E S S E S S E S S E   S S E S S E E E E E
||--------------------------|------------------------|
||o-------------------------|------------------------|
||--------------------------|------------------------|
||--------------------------|------------------------|
||o-------------------------|------------------------|
||--5-5-5-5-5-5-5-5-5-5-5-5-|-5-5-5-5-5-5-6-5-6-8----|
|
|   S S E S S E S S E S S E   S S E S S E E E E E
||--------------------------|------------------------|
||o-------------------------|------------------------|
||--------------------------|------------------------|
||--------------------------|------------------------|
||o-------------------------|------------------------|
||--5-5-5-5-5-5-5-5-5-5-5-5-|-5-5-5-5-5-5-6-5-6-8----|


  S S E S S E S S E S S E   H    H
|-------------------------|------------||
|-------------------------|-----------o||
|-------------------------|------------||
|-------------------------|-3----------||
|-------------------------|-4----4----o||
|-5-5-5-5-5-5-5-5-5-5-5-5-|------4-----||
|
| S S E S S E S S E S S E   H    H
|-------------------------|------------||
|-------------------------|-----------o||
|-------------------------|------------||
|-------------------------|-3----------||
|-------------------------|-4----4----o||
|-5-5-5-5-5-5-5-5-5-5-5-5-|------4-----||


  E E S S E S S E S S E   S S E S S E E E E E
|-----------------------|---------------------|
|-----------------------|---------------------|
|-----------------------|---------------------|
|-----------------------|---------------------|
|-6-5-------------------|---------------6---6-|
|-6-5-5-5-5-5-5-5-5-5-5-|-5-5-5-5-5-5-5-6---6-|
|
| E E S S E S S E S S E   S S E S S E E E E E
|-----------------------|---------------------|
|-----------------------|---------------------|
|-----------------------|---------------------|
|-----------------------|---------------------|
|-6-5-------------------|---------------6---6-|
|-6-5-5-5-5-5-5-5-5-5-5-|-5-5-5-5-5-5-5-6---6-|


  E E S S E S S E E E   E E E E E E E E
|---------------------|-------------------|
|---------------------|-------------------|
|---------------------|-------------------|
|---------------------|-------------------|
|-5-------------------|-------------------|
|-5-5-5-5-5-5-5-5-5-5-|-6-5-6-8-9-8-6-5---|
|
| E E S S E S S E E E   E E E E E E E E
|---------------------|-------------------|
|---------------------|-------------------|
|---------------------|-------------------|
|---------------------|-------------------|
|-5-------------------|-------------------|
|-5-5-5-5-5-5-5-5-5-5-|-6-5-6-8-9-8-6-5---|


  E E S S E S S E S S E   S S E S S E E E E E
|-----------------------|---------------------|
|-----------------------|---------------------|
|-----------------------|---------------------|
|-----------------------|---------------------|
|-6-5-------------------|---------------6---6-|
|-6-5-5-5-5-5-5-5-5-5-5-|-5-5-5-5-5-5-5-6---6-|
|
| E E S S E S S E S S E   S S E S S E E E E E
|-----------------------|---------------------|
|-----------------------|---------------------|
|-----------------------|---------------------|
|-----------------------|---------------------|
|-6-5-------------------|---------------6---6-|
|-6-5-5-5-5-5-5-5-5-5-5-|-5-5-5-5-5-5-5-6---6-|


  E E S S E S S E E E   E E E  E  E  E E E
|---------------------|----------------------|
|---------------------|----------------------|
|---------------------|----------------------|
|---------------------|----------------------|
|-5-------------------|----------------------|
|-5-5-5-5-5-5-5-5-5-5-|-6-5-6--8--9--8-6-5---|
|
| E E S S E S S E E E   E E E  E  E  E E E
|---------------------|----------------------|
|---------------------|----------------------|
|---------------------|----------------------|
|---------------------|----------------------|
|-5-------------------|----------------------|
|-5-5-5-5-5-5-5-5-5-5-|-9-8-9-11-12-11-9-8---|


  H    H      H    E Q  E   H    H       E E E E  E  E E  E
|-----------|-------------|-----------|---------------------|
|-----------|-------------|-----------|---------------------|
|-----------|-------------|-----------|---------------------|
|-----------|-------------|-----------|---------------------|
|-5----6----|-8----9----6-|-8----9----|---------------------|
|-5----6----|-8----9----6-|-8----9----|-11-9-8-9-12-11-9-11-|
|
| H    H      H    E Q  E   H    H       E E E E  E  E E  E
|-----------|-------------|-----------|---------------------|
|-----------|-------------|-----------|---------------------|
|-----------|-------------|-----------|---------------------|
|-----------|-------------|-----------|---------------------|
|-5----6----|-8----9----6-|-8----9----|---------------------|
|-5----6----|-8----9----6-|-8----9----|-11-9-8-9-12-11-9-11-|


  H    H      H    E Q  E   H    H       E E E E  H
|-----------|-------------|-----------|----------------|
|-----------|-------------|-----------|----------------|
|-----------|-------------|-----------|----------------|
|-----------|-------------|-----------|----------------|
|-5----6----|-8----9----6-|-8----9----|----------------|
|-5----6----|-8----9----6-|-8----9----|-11-9-8-9-12----|
|
| H    H      H    E Q  E   H    H       E E E E  H
|-----------|-------------|-----------|----------------|
|-----------|-------------|-----------|----------------|
|-----------|-------------|-----------|----------------|
|-----------|-------------|-----------|----------------|
|-5----6----|-8----9----6-|-8----9----|----------------|
|-5----6----|-8----9----6-|-8----9----|-11-9-8-9-12----|


--------------------------------------------------------------------------------


Duration Legend
---------------
W - whole; H - half; Q - quarter; E - 8th; S - 16th; T - 32nd; X - 64th; a - acciaccatura
+ - note tied to previous; . - note dotted; .. - note double dotted
Uncapitalized letters represent notes that are staccato (1/2 duration)
Irregular groupings are notated above the duration line
Duration letters will always appear directly above the note/fret number it represents the
duration for.  Duration letters with no fret number below them represent rests.  Multi-
bar rests are notated in the form Wxn, where n is the number of bars to rest for.  Low
melody durations appear below the staff

Tablature Legend
----------------
 h   - hammer-on
 p   - pull-off
 b   - bend
 pb  - pre-bend
 r   - bend release (if no number after the r, then release immediately)
 /\  - slide into or out of (from/to "nowhere")
 s   - legato slide
 S   - shift slide
 - natural harmonic
[n]  - artificial harmonic
n(n) - tapped harmonic
 ~   - vibrato
 tr  - trill
 T   - tap
 TP  - trem. picking
 PM  - palm muting
\n/  - tremolo bar dip; n = amount to dip
 \n  - tremolo bar down
 n/  - tremolo bar up
/n\  - tremolo bar inverted dip
 =   - hold bend; also acts as connecting device for hammers/pulls
 <> - volume swell (louder/softer)
 x   - on rhythm slash represents muted slash
 o   - on rhythm slash represents single note slash

Misc Legend
-----------
 |  - bar
||  - double bar
||o - repeat start
o|| - repeat end
*|  - double bar (ending)
 :  - bar (freetime)
 $  - Segno
 &  - Coda
Tempo markers -  = BPM(8/16=s8/s16), where s8 = swing 8ths, s16 = swing 16ths

--------------------------------------------------------------------------------



there ya go
comments/questions
ewlord-1492@hotmail.com
Добавлено: 18.07.2012
Другие материалы по этой песне:

Страница создана 03.03.2012
http://primanota.ru/himsa/sleezevil-chords.htm
Привет, Гость.
Предлагаем пройти революционный курс по гитаре.
Подарок от PrimaNota.Ru, забирай!