PrimaNota.ru - самый крупный в мире бесплатный архив песенных текстов, аккордов, табулатур и нот


Himsa - Sinwalkers - таба

Регистрация Запомнить меня
Войти через:  Facebook Google Twitter Vk Yandex Mail.ru

Himsa - Sinwalkers - таба

Печатать
Просмотров: 114
Gtr I (C G C F A D) - 'Clean'
Gtr II (C G C F A D) - 'Clean'
Gtr III (C G C F A D) - 'Clean'
Gtr IV (C G C F A D) - 'Distortion'
Gtr V (C G C F A D) - 'Distortion'
Gtr VI (C G C F A D) - 'Distortion'


I know this tab turned out to be really long
but it's complete

please rate and comment
ewlord-1492@hotmail.com
email me for the powertab
make sure you say which song



  Q=122
 4/4
  Gtr I
  E E E E E E E E   E E E E E E E E   E E E E E E E E   E E E E E E E E
|-1-----0-----1---|---0-----1-------|-1-----0-----1---|---0-----1--------|
|---3-----3-----3-|-----3-----3---3-|---3-----3-----3-|-----3-----3---3--|
|-----2-----2-----|-2-----2-----2---|-----2-----2-----|-2-----2-----2----|
|-----------------|-----------------|-----------------|------------------|
|-----------------|-----------------|-----------------|------------------|
|-----------------|-----------------|-----------------|------------------|
|
| Gtr II
| >                                   >
| W                 W                 W                 W
|-1---------------|-----------------|-1---------------|------------------|
|-3---------------|-----------------|-3---------------|------------------|
|-2---------------|-----------------|-2---------------|------------------|
|-----------------|-----------------|-0---------------|------------------|
|-----------------|-----------------|-----------------|------------------|
|-----------------|-----------------|-----------------|------------------|


  E  E E E  E E E E    E  E E E E E E E
|-1------0------1---|-----0-----1-------|
|----3------3-----3-|-------3-----3---3-|
|------2------2-----|--2------2-----2---|
|-------------------|-------------------|
|-------------------|-------------------|
|-------------------|-------------------|
|
|                      >
| Q.     Q.     Q     +W
|-5-----------------|-------------------|
|-6------5----------|-------------------|
|-7-------------7---|-(7)---------------|
|-------------------|-------------------|
|-------------------|-------------------|
|-------------------|-------------------|


  E  E E E  E E E E    E  E E E E E E E
|-1------0------1---|-----0-----1-------|
|----3------3-----3-|-------3-----3---3-|
|------2------2-----|--2------2-----2---|
|-------------------|-------------------|
|-------------------|-------------------|
|-------------------|-------------------|
|
|                      >
| Q.     Q.     Q     +W
|-5-----------------|-------------------|
|-6------5----------|-------------------|
|-7-------------7---|-(7)---------------|
|-------------------|-------------------|
|-------------------|-------------------|
|-------------------|-------------------|


   E E E  E E E  E E      E E E  E E E  E E
|----------------------|--------------------|
|--6-5-3--6-5-3--6-5---|--6-5-3--6-5-3--6-5-|
|----------------------|--------------------|
|----------------------|--------------------|
|----------------------|--------------------|
|----------------------|--------------------|
|
|  E E E  E E E  E E      E E E  E E E  E E
|----------------------|--------------------|
|-10-8-6-10-8-6-10-8---|-10-8-6-10-8-6-10-8-|
|----------------------|--------------------|
|----------------------|--------------------|
|----------------------|--------------------|
|----------------------|--------------------|
|
| Gtr III
|  E E E  E E E  E S S    E E E  E E E  E E
|----------------------|--------------------|
|----------------------|--------------------|
|--3-3-3--3-3-3--3-3-3-|--3-3-3--3-3-3--5-5-|
|--3-3-3--3-3-3--3-3-3-|--3-3-3--3-3-3--5-5-|
|--1-1-1--1-1-1--1-1-1-|--1-1-1--1-1-1--3-3-|
|----------------------|--------------------|


   E E E  E E E  E E      E E E  E E E  E E
|----------------------|-----------------------|
|--6-5-3--6-5-3--6-5---|--6-5-3--6-5-3--6-5----|
|----------------------|-----------------------|
|----------------------|-----------------------|
|----------------------|-----------------------|
|----------------------|-----------------------|
|
|  E E E  E E E  E E      E E E  E E E  E E
|----------------------|-----------------------|
|-10-8-6-10-8-6-10-8---|-10-8-6-10-8-6-10-8----|
|----------------------|-----------------------|
|----------------------|-----------------------|
|----------------------|-----------------------|
|----------------------|-----------------------|
|
|  E E E  E E E  E S S    E E E  E E E  E S S
|----------------------|-----------------------|
|----------------------|-----------------------|
|--2-2-2--2-2-2--2-2-2-|--2-2-2--2-2-2--2-2-2--|
|--2-2-2--2-2-2--2-2-2-|--2-2-2--2-2-2--2-2-2--|
|--0-0-0--0-0-0--0-0-0-|--0-0-0--0-0-0--0-0-0--|
|----------------------|-----------------------|


    E E E E E E E E   E E E E E E E E   E E E E E E E E   E E E E E E E E
||--1-----0-----1---|---0-----1-------|-1-----0-----1---|---0-----1-------||
||o---3-----3-----3-|-----3-----3---3-|---3-----3-----3-|-----3-----3---3o||
||------2-----2-----|-2-----2-----2---|-----2-----2-----|-2-----2-----2---||
||------------------|-----------------|-----------------|-----------------||
||o-----------------|-----------------|-----------------|----------------o||
||------------------|-----------------|-----------------|-----------------||
|
|   >                                   >
|   W                 W                 W                 W
||--1---------------|-----------------|-5---------------|-----------------||
||o-3---------------|-----------------|-6---------------|----------------o||
||--2---------------|-----------------|-7---------------|-----------------||
||------------------|-----------------|-----------------|-----------------||
||o-----------------|-----------------|-----------------|----------------o||
||------------------|-----------------|-----------------|-----------------||


   E E E  E E E  E E      E E E  E E E  E E
|----------------------|--------------------|
|--6-5-3--6-5-3--6-5---|--6-5-3--6-5-3--6-5-|
|----------------------|--------------------|
|----------------------|--------------------|
|----------------------|--------------------|
|----------------------|--------------------|
|
|  E E E  E E E  E E      E E E  E E E  E E
|----------------------|--------------------|
|-10-8-6-10-8-6-10-8---|-10-8-6-10-8-6-10-8-|
|----------------------|--------------------|
|----------------------|--------------------|
|----------------------|--------------------|
|----------------------|--------------------|
|
| Gtr III
|  E E E  E E E  E S S    E E E  E E E  E E
|----------------------|--------------------|
|----------------------|--------------------|
|--3-3-3--3-3-3--3-3-3-|--3-3-3--3-3-3--5-5-|
|--3-3-3--3-3-3--3-3-3-|--3-3-3--3-3-3--5-5-|
|--1-1-1--1-1-1--1-1-1-|--1-1-1--1-1-1--3-3-|
|----------------------|--------------------|


                              Gtr IV
   E E E  E E E  E E     H    Q  Q
|----------------------|--------------|
|--6-5-3--6-5-3--6-5---|-3------------|
|----------------------|--------------|
|----------------------|--------------|
|----------------------|------1--1----|
|----------------------|------1--1----|
|
|                             Gtr V
|  E E E  E E E  E E     H    Q  Q
|----------------------|--------------|
|-10-8-6-10-8-6-10-8---|-6------------|
|----------------------|--------------|
|----------------------|--------------|
|----------------------|------1--1----|
|----------------------|------1--1----|
|
|  E E E  E E E  E S S   H    H
|----------------------|--------------|
|----------------------|--------------|
|--2-2-2--2-2-2--2-2-2-|-2------------|
|--2-2-2--2-2-2--2-2-2-|-2------------|
|--0-0-0--0-0-0--0-0-0-|-0------------|
|----------------------|--------------|


    E E E E E E E E    E  E E E E E E E
||--1-----0-----1---|-----0-----1-------|
||o---3-----3-----3-|-------3-----3---3-|
||------2-----2-----|--2------2-----2---|
||------------------|-------------------|
||o-----------------|-------------------|
||------------------|-------------------|
|
|   W                 +W
||------------------|-------------------|
||o-----------------|-------------------|
||------------------|-------------------|
||------------------|-------------------|
||o-0---------------|-(0)---------------|
||--0---------------|-(0)---------------|


   E  E E E E E E E    E  E E E E E E E
|--1------0-----1---|-----0-----1---------||
|-----3-----3-----3-|-------3-----3---3--o||
|-------2-----2-----|--2------2-----2-----||
|-------------------|---------------------||
|-------------------|--------------------o||
|-------------------|---------------------||
|
| +W                  +H        Q   Q
|-------------------|---------------------||
|-------------------|--------------------o||
|-------------------|---------------------||
|-------------------|---------------------||
|-(0)---------------|-(0)-------1---1----o||
|-(0)---------------|-(0)-------1---1-----||


  >
  W           W            W           W
|----------|-------------|----------|--------------|
|----------|-------------|----------|--------------|
|-3--------|-------------|----------|--------------|
|----------|-------------|----------|--------------|
|----------|-------------|----------|--------------|
|----------|-------------|----------|--------------|
|
| W          +H     H      W          +H     Q  Q
|----------|-------------|----------|--------------|
|----------|-------------|----------|--------------|
|----------|-------------|----------|--------------|
|-3--------|-(3)----5----|-2--------|-(2)----------|
|-1--------|-(1)----3----|-0--------|-(0)----1--1--|
|----------|-------------|----------|--------1--1--|


   E E E  E E E  E E    E  E E  E E E  E E
|--------------------|---------------------|
|--------------------|---------------------|
|-10-9-7-10-9-7-10-9-|-10--9-7-10-9-7-10-9-|
|--------------------|---------------------|
|--------------------|---------------------|
|--------------------|---------------------|
|
|  W                   +W
|--------------------|---------------------|
|--------------------|---------------------|
|--------------------|---------------------|
|--------------------|---------------------|
|--0-----------------|-(0)-----------------|
|--0-----------------|-(0)-----------------|


   E  E E  E E E  E E    E  E E  E E E  E E
|---------------------|---------------------|
|---------------------|---------------------|
|-10--9-7-10-9-7-10-9-|-10--9-7-10-9-7-10-9-|
|---------------------|---------------------|
|---------------------|---------------------|
|---------------------|---------------------|
|
| +W                    +H         Q    Q
|---------------------|---------------------|
|---------------------|---------------------|
|---------------------|---------------------|
|---------------------|---------------------|
|-(0)-----------------|-(0)--------1----1---|
|-(0)-----------------|-(0)--------1----1---|


   E  E  E  E  E  E  E  E    E   E  E  E  E  E  E  E
|-------------------------|--------------------------|
|-------------------------|--------------------------|
|-10--9--7-10--9--7-10--9-|-10---9--7-10--9--7-10--9-|
|-------------------------|--------------------------|
|-------------------------|--------------------------|
|-------------------------|--------------------------|
|
|  W                        +W
|-------------------------|--------------------------|
|-------------------------|--------------------------|
|-------------------------|--------------------------|
|-------------------------|--------------------------|
|--0----------------------|-(0)----------------------|
|--0----------------------|-(0)----------------------|
|
| Gtr VI
|  E  E  E  E  E  E  E  E    E   E  E  E  E  E  E  E
|-------------------------|--------------------------|
|-------------------------|--------------------------|
|-14-12-10-14-12-10-14-12-|-14--12-10-14-12-10-14-12-|
|-------------------------|--------------------------|
|-------------------------|--------------------------|
|-------------------------|--------------------------|


   E   E  E  E  E  E  E  E    E   E  E  E  E  E  E  E
|--------------------------|--------------------------|
|--------------------------|--------------------------|
|-10---9--7-10--9--7-10--9-|-10---9--7-10--9--7-10--9-|
|--------------------------|--------------------------|
|--------------------------|--------------------------|
|--------------------------|--------------------------|
|
| +W                         +H            Q     Q
|--------------------------|--------------------------|
|--------------------------|--------------------------|
|--------------------------|--------------------------|
|--------------------------|--------------------------|
|-(0)----------------------|-(0)-----------1-----1----|
|-(0)----------------------|-(0)-----------1-----1----|
|
|  E   E  E  E  E  E  E  E    E   E  E  E  E  E  E  E
|--------------------------|--------------------------|
|--------------------------|--------------------------|
|-14--12-10-14-12-10-14-12-|-14--12-10-14-12-10-14-12-|
|--------------------------|--------------------------|
|--------------------------|--------------------------|
|--------------------------|--------------------------|


   E  E  E  E  E  E  E  E    E  E  E  E  E  E  E  E
|-------------------------|-------------------------|
|-------------------------|-------------------------|
|-15-14-14-14-14-12-12-12-|-12-10-10-10-10--9--9--9-|
|-------------------------|-------------------------|
|-13-12-12-12-12-10-10-10-|-10--8--8--8--8--7--7--7-|
|-------------------------|-------------------------|
|
|  E  E  E  E  E  E  E  E    E  E  E  E  E  E  E  E
|-------------------------|-------------------------|
|-11-11-11-11-11-11-11-11-|-11-11-11-11-11-13-13-13-|
|-------------------------|-------------------------|
|--8--8--8--8--8--8--8--8-|--8--8--8--8--8-10-10-10-|
|--8--8--8--8--8--8--8--8-|--8--8--8--8--8-10-10-10-|
|--8--8--8--8--8--8--8--8-|--8--8--8--8--8-10-10-10-|


   E  E  E  E  E  E  E  E    E  E  E  E E E E E
|-------------------------|---------------------|
|-------------------------|---------------------|
|-14-12-12-12-12-10-10-10-|-10--9--9--9-5-5-5-5-|
|-------------------------|---------------------|
|-12-10-10-10-10--8--8--8-|--8--7--7--7-3-3-3-3-|
|-------------------------|---------------------|
|
|  E  E  E  E  E  E  E  E    E  E  E  E Q   Q
|-------------------------|---------------------|
|-10-10-10-10-10-10-10-10-|-10-10-10-10---------|
|-------------------------|---------------------|
|--7--7--7--7--7--7--7--7-|--7--7--7--7---------|
|--7--7--7--7--7--7--7--7-|--7--7--7--7-1---1---|
|--7--7--7--7--7--7--7--7-|--7--7--7--7-1---1---|


     E  E  E  E  E  E  E  E    E   E  E  E  E  E  E  E
||--------------------------|--------------------------|
||o-------------------------|--------------------------|
||--10--9--7-10--9--7-10--9-|-10---9--7-10--9--7-10--9-|
||--------------------------|--------------------------|
||o-------------------------|--------------------------|
||--------------------------|--------------------------|
|
|    W                        +W
||--------------------------|--------------------------|
||o-------------------------|--------------------------|
||--------------------------|--------------------------|
||--------------------------|--------------------------|
||o--0----------------------|-(0)----------------------|
||---0----------------------|-(0)----------------------|
|
|   Gtr VI
|    E  E  E  E  E  E  E  E    E   E  E  E  E  E  E  E
||--------------------------|--------------------------|
||o-------------------------|--------------------------|
||--14-12-10-14-12-10-14-12-|-14--12-10-14-12-10-14-12-|
||--------------------------|--------------------------|
||o-------------------------|--------------------------|
||--------------------------|--------------------------|


   E   E  E  E  E  E  E  E    E   E  E  E  E  E  E  E
|--------------------------|--------------------------||
|--------------------------|-------------------------o||
|-10---9--7-10--9--7-10--9-|-10---9--7-10--9--7-10--9-||
|--------------------------|--------------------------||
|--------------------------|-------------------------o||
|--------------------------|--------------------------||
|
| +W                         +H            Q     Q
|--------------------------|--------------------------||
|--------------------------|-------------------------o||
|--------------------------|--------------------------||
|--------------------------|--------------------------||
|-(0)----------------------|-(0)-----------1-----1---o||
|-(0)----------------------|-(0)-----------1-----1----||
|
|  E   E  E  E  E  E  E  E    E   E  E  E  E  E  E  E
|--------------------------|--------------------------||
|--------------------------|-------------------------o||
|-14--12-10-14-12-10-14-12-|-14--12-10-14-12-10-14-12-||
|--------------------------|--------------------------||
|--------------------------|-------------------------o||
|--------------------------|--------------------------||


   E  E  E  E  E  E  E  E    E  E  E  E  E  E  E  E
|-------------------------|-------------------------|
|-------------------------|-------------------------|
|-15-14-14-14-14-12-12-12-|-12-10-10-10-10-12-12-12-|
|-------------------------|-------------------------|
|-13-12-12-12-12-10-10-10-|-10--8--8--8--8-10-10-10-|
|-------------------------|-------------------------|
|
|  E  E  E  E  E  E  E  E    E  E  E  E  E  E  E  E
|-------------------------|-------------------------|
|-11-11-11-11-11-11-11-11-|-11-11-11-11-11-13-13-13-|
|-------------------------|-------------------------|
|--8--8--8--8--8--8--8--8-|--8--8--8--8--8-10-10-10-|
|--8--8--8--8--8--8--8--8-|--8--8--8--8--8-10-10-10-|
|--8--8--8--8--8--8--8--8-|--8--8--8--8--8-10-10-10-|


   E  E  E  E  E  E  E  E    E  E  E  E  E  E  E  E
|-------------------------|-------------------------|
|-------------------------|-------------------------|
|-14-12-12-12-12-10-10-10-|-10--9--9--9--9-10-10-10-|
|-------------------------|-------------------------|
|-12-10-10-10-10--8--8--8-|--8--7--7--7--7--8--8--8-|
|-------------------------|-------------------------|
|
|  E  E  E  E  E  E  E  E    E  E  E  E  E  E  E  E
|-------------------------|-------------------------|
|-10-10-10-10-10-10-10-10-|-10-10-10-10-10-11-11-11-|
|-------------------------|-------------------------|
|--7--7--7--7--7--7--7--7-|--7--7--7--7--7--8--8--8-|
|--7--7--7--7--7--7--7--7-|--7--7--7--7--7--8--8--8-|
|--7--7--7--7--7--7--7--7-|--7--7--7--7--7--8--8--8-|


   E  E  E  E  E  E  E  E    E  E  E  E  E  E  E  E
|-------------------------|-------------------------|
|-------------------------|-------------------------|
|-12-10-10-10-10--9--9--9-|--9--7--7--7--7--9--9--9-|
|-------------------------|-------------------------|
|-10--8--8--8--8--7--7--7-|--7--5--5--5--5--7--7--7-|
|-------------------------|-------------------------|
|
|  E  E  E  E  E  E  E  E    E  E  E  E  E  E  E  E
|-------------------------|-------------------------|
|-11-11-11-11-11-11-11-11-|-11-11-11-11-11-13-13-13-|
|-------------------------|-------------------------|
|--8--8--8--8--8--8--8--8-|--8--8--8--8--8-10-10-10-|
|--8--8--8--8--8--8--8--8-|--8--8--8--8--8-10-10-10-|
|--8--8--8--8--8--8--8--8-|--8--8--8--8--8-10-10-10-|


   E  E  E  E  E  E  E  E    E  E  E  E Q  Q
|-------------------------|-------------------|
|-------------------------|-------------------|
|-14-12-12-12-12-10-10-10-|-10--9--9--9-5--5--|
|-------------------------|-------------------|
|-12-10-10-10-10--8--8--8-|--8--7--7--7-3--3--|
|-------------------------|-------------------|
|
|  E  E  E  E  E  E  E  E    E  E  E  E Q  Q
|-------------------------|-------------------|
|-10-10-10-10-10-10-10-10-|-10-10-10-10-------|
|-------------------------|-------------------|
|--7--7--7--7--7--7--7--7-|--7--7--7--7-------|
|--7--7--7--7--7--7--7--7-|--7--7--7--7-1--1--|
|--7--7--7--7--7--7--7--7-|--7--7--7--7-1--1--|


|-----------------|
|-----------------|
|-----------------|
|-----------------|
|-----------------|
|-----------------|
|
| W        +W
|-----------------|
|-----------------|
|-----------------|
|-----------------|
|-0--------(0)----|
|-0--------(0)----|


  Q.   E +H        Q.    Q  E Q     Q.   E +H        Q.      Q.   Q
|---------------|----------------|----------------|------------------|
|---------------|----------------|----------------|------------------|
|-7----9-(9)----|--7----10--9-5--|--7----9-(9)----|-12b14r==10----9--|
|---------------|----------------|----------------|------------------|
|---------------|----------------|----------------|------------------|
|---------------|----------------|----------------|------------------|
|
|                  >
| W               +W               +W               +W
|---------------|----------------|----------------|------------------|
|---------------|----------------|----------------|------------------|
|---------------|----------------|----------------|------------------|
|---------------|----------------|----------------|------------------|
|-0-------------|-(0)------------|-(0)------------|-(0)--------------|
|-0-------------|-(0)------------|-(0)------------|-(0)--------------|


  Q.   E +H        Q.    Q  E Q     Q.    E  +H        E   E  E  E  +H
|---------------|----------------|------------------|----------------------|
|---------------|----------------|------------------|----------------------|
|-7----9-(9)----|--7----10--9-5--|-15----14-(14)----|-15--12-15-14-(14)----|
|---------------|----------------|------------------|----------------------|
|---------------|----------------|------------------|----------------------|
|---------------|----------------|------------------|----------------------|
|
| W               +W               +W                 +W
|---------------|----------------|------------------|----------------------|
|---------------|----------------|------------------|----------------------|
|---------------|----------------|------------------|----------------------|
|---------------|----------------|------------------|----------------------|
|-0-------------|-(0)------------|-(0)--------------|-(0)------------------|
|-0-------------|-(0)------------|-(0)--------------|-(0)------------------|


   Q.   E +H        Q.    Q  E Q     Q.   E +H        Q.      Q.   Q
|----------------|----------------|----------------|------------------|
|----------------|----------------|----------------|------------------|
|--7----9-(9)----|--7----10--9-5--|--7----9-(9)----|-12b14r==10----9--|
|----------------|----------------|----------------|------------------|
|----------------|----------------|----------------|------------------|
|----------------|----------------|----------------|------------------|
|
|  W               +W                W               +W
|----------------|----------------|----------------|------------------|
|----------------|----------------|----------------|------------------|
|----------------|----------------|----------------|------------------|
|----------------|----------------|----------------|------------------|
|--0-------------|-(0)------------|--8-------------|-(8)--------------|
|--0-------------|-(0)------------|--8-------------|-(8)--------------|
|
|  Q.   E +H        Q.    Q  E Q     Q.   E +H        Q.      Q.   Q
|----------------|----------------|----------------|------------------|
|-------8-(8)----|-------10--8----|-------8-(8)----|-11b13r==10----8--|
|-10-------------|-10----------9--|-10-------------|------------------|
|----------------|----------------|----------------|------------------|
|----------------|----------------|----------------|------------------|
|----------------|----------------|----------------|------------------|


   Q.   E +H        Q.    Q  E Q     Q.    E  +H        E  E  E  E  +H
|----------------|----------------|------------------|-------------------------|
|----------------|----------------|------------------|----------17-(17)b19=====|
|--7----9-(9)----|--7----10--9-5--|-15----14-(14)----|-17-15-17----------------|
|----------------|----------------|------------------|-------------------------|
|----------------|----------------|------------------|-------------------------|
|----------------|----------------|------------------|-------------------------|
|
|  W               +W                W                  W
|----------------|----------------|------------------|-------------------------|
|----------------|----------------|------------------|-------------------------|
|----------------|----------------|------------------|-------------------------|
|----------------|----------------|------------------|-------------------------|
|--0-------------|-(0)------------|--8---------------|-------------------------|
|--0-------------|-(0)------------|--8---------------|-------------------------|
|
|  Q.   E +H        Q.    Q  E Q     Q.    E  +H        E  E  E  E  +H
|----------------|----------------|------------------|----------15-(15)b17=====|
|-------8-(8)----|-------10--8----|-15----13-(13)----|-17-15-17----------------|
|-10-------------|-10----------9--|------------------|-------------------------|
|----------------|----------------|------------------|-------------------------|
|----------------|----------------|------------------|-------------------------|
|----------------|----------------|------------------|-------------------------|


  Q=238
  W                 W                W                 W
|-----------------|----------------|-----------------|-----------------|
|-----------------|----------------|-----------------|-----------------|
|-----------------|----------------|-----------------|-----------------|
|-----------------|----------------|-----------------|-----------------|
|-----------------|----------------|-----------------|-----------------|
|-----------------|----------------|-----------------|-----------------|
|
| E E E E E E E E   E E E E E E Q    E E E E E E E E   E E E E E E E E
|-----------------|----------------|-----------------|-----------------|
|-----------------|----------------|-----------------|-----------------|
|-----------------|----------------|-----------------|-----------------|
|-----------------|----------------|-----------------|-----------------|
|-----5---5-------|-4---4-0-1-0-4--|-----5---5-------|-8-7-5---5-------|
|-0-0---0---0-0-0-|---0------------|-0-0---0---0-0-0-|-------8---8-7-5-|


  W                 W                E E q  q  q    E E q  q  q
|-----------------|----------------|--------------|--------------|
|-----------------|----------------|--------------|--------------|
|-----------------|----------------|--------------|--------------|
|-----------------|----------------|--------------|--------------|
|-----------------|----------------|-0-1----1-----|-0-1----1-----|
|-----------------|----------------|-----5-----5--|-----5-----5--|
|
| E E E E E E E E   E E E E E E Q    E E q  q  q    E E q  q  q
|-----------------|----------------|--------------|--------------|
|-----------------|----------------|--------------|--------------|
|-----------------|----------------|--------------|--------------|
|-----------------|----------------|--------------|--------------|
|-----5---5-------|-4---4-0-1-0-4--|-0-1----1-----|-0-1----1-----|
|-0-0---0---0-0-0-|---0------------|-----5-----5--|-----5-----5--|


  E E E E E E E E   E E E E E E Q    E E E E E E E E   E E E E E E E E
|-----------------|----------------|-----------------|-----------------|
|-----------------|----------------|-----------------|-----------------|
|-----------------|----------------|-----------------|-----------------|
|-----------------|----------------|-----------------|-----------------|
|-----5---5-------|-4---4-0-1-0-4--|-----5---5-------|-8-7-5---5-------|
|-0-0---0---0-0-0-|---0------------|-0-0---0---0-0-0-|-------8---8-7-5-|
|
| E E E E E E E E   E E E E E E Q    E E E E E E E E   E E E E E E E E
|-----------------|----------------|-----------------|-----------------|
|-----------------|----------------|-----------------|-----------------|
|-----------------|----------------|-----------------|-----------------|
|-----------------|----------------|-----------------|-----------------|
|-----5---5-------|-4---4-0-1-0-4--|-----5---5-------|-8-7-5---5-------|
|-0-0---0---0-0-0-|---0------------|-0-0---0---0-0-0-|-------8---8-7-5-|


  E E E E E E E E   E E E E E E Q    E E q  q  q    E E q  q  q
|-----------------|----------------|--------------|--------------|
|-----------------|----------------|--------------|--------------|
|-----------------|----------------|--------------|--------------|
|-----------------|----------------|--------------|--------------|
|-----5---5-------|-4---4-0-1-0-4--|-0-1----1-----|-0-1----1-----|
|-0-0---0---0-0-0-|---0------------|-----5-----5--|-----5-----5--|
|
| E E E E E E E E   E E E E E E Q    E E q  q  q    E E q  q  q
|-----------------|----------------|--------------|--------------|
|-----------------|----------------|--------------|--------------|
|-----------------|----------------|--------------|--------------|
|-----------------|----------------|--------------|--------------|
|-----5---5-------|-4---4-0-1-0-4--|-0-1----1-----|-0-1----1-----|
|-0-0---0---0-0-0-|---0------------|-----5-----5--|-----5-----5--|


  E E E E E E E E   E E E E E E Q    E E E E E E E E   E E E E E E  E E
|-----------------|----------------|-----------------|------------------|
|-----------------|----------------|-----------------|------------------|
|-----------------|----------------|-----------------|------------------|
|-----------------|----------------|-----------------|------------------|
|-----8---8-------|-7---7-4-5-4-7--|-----8---8-------|-8-7-5---5--------|
|-0-0---0---0-0-0-|---0------------|-0-0---0---0-0-0-|-------8---8--7-5-|
|
| E E E E E E E E   E E E E E E Q    E E E E E E E E   E E E E E E  E E
|-----------------|----------------|-----------------|------------------|
|-----------------|----------------|-----------------|------------------|
|-----------------|----------------|-----------------|------------------|
|-----------------|----------------|-----------------|-7-5--------------|
|-----8---8-------|-7---7-4-5-4-7--|-----8---8-------|-----8-5-8-5------|
|-0-0---0---0-0-0-|---0------------|-0-0---0---0-0-0-|-------------10-8-|


  E E E E E E E E   E E E E E E Q    E E q  q  q    E E q  q  q
|-----------------|----------------|--------------|--------------|
|-----------------|----------------|--------------|--------------|
|-----------------|----------------|--------------|--------------|
|-----------------|----------------|--------------|--------------|
|-----8---8-------|-7---7-4-5-4-7--|-0-1----1-----|-0-1----1-----|
|-0-0---0---0-0-0-|---0------------|-----5-----5--|-----5-----5--|
|
| E E E E E E E E   E E E E E E Q    E E q  q  q    E E q  q  q
|-----------------|----------------|--------------|--------------|
|-----------------|----------------|--------------|--------------|
|-----------------|----------------|--------------|--------------|
|-----------------|----------------|--------------|--------------|
|-----8---8-------|-7---7-4-5-4-7--|-0-1----1-----|-0-1----1-----|
|-0-0---0---0-0-0-|---0------------|-----5-----5--|-----5-----5--|


    E E E E E E Q    E E E E E E Q    E E E E E E E E   E E E E E E E E
||-----------------|----------------|-----------------|----------------|
||o----------------|----------------|-----------------|----------------|
||-----------------|----------------|-----------------|----------------|
||-----------------|----------------|-----------------|----------------|
||o---------5-4-6--|---------4-3-6--|-----------------|----------------|
||--5-5-5-5--------|-5-5-5-5--------|-4-4-4-4-4-4-4-4-|-1-1-1-1-1-1-1-1|
|
|   E E E E E E Q    E E E E E E Q    E E E E E E E E   E E E E E E E E
||-----------------|----------------|-----------------|----------------|
||o----------------|----------------|-----------------|----------------|
||-----------------|----------------|-----------------|----------------|
||-----------------|----------------|-----------------|----------------|
||o---------5-4-6--|---------4-3-6--|-----------------|----------------|
||--5-5-5-5--------|-5-5-5-5--------|-4-4-4-4-4-4-4-4-|-1-1-1-1-1-1-1-1|


  E E E E E E Q    E E E E E E Q    Q  Q  Q  Q    Q  Q  Q  Q
|----------------|----------------|-------------|--------------||
|----------------|----------------|-------------|-------------o||
|----------------|----------------|-3--3--3--6--|-6--6--6--6---||
|----------------|----------------|-------------|--------------||
|---------5-4-6--|---------4-3-6--|-1--1--1--4--|-4--4--4--4--o||
|-5-5-5-5--------|-5-5-5-5--------|-------------|--------------||
|
| E E E E E E Q    E E E E E E Q    Q  Q  Q  Q    Q  Q  Q  Q
|----------------|----------------|-------------|--------------||
|----------------|----------------|-------------|-------------o||
|----------------|----------------|-6--6--6--9--|-9--9--9--9---||
|----------------|----------------|-------------|--------------||
|---------5-4-6--|---------4-3-6--|-4--4--4--7--|-7--7--7--7--o||
|-5-5-5-5--------|-5-5-5-5--------|-------------|--------------||


  Q=122
  Q.   E +H       Q.    Q      E Q    Q.   E +H        Q.      Q.   Q
|---------------|-------------------|---------------|------------------|
|---------------|-------------------|---------------|------------------|
|-7----9-(9)----|-7----10------9-5--|-7----9-(9)----|-12b14r==10----9--|
|---------------|-------------------|---------------|------------------|
|---------------|-------------------|---------------|------------------|
|---------------|-------------------|---------------|------------------|
|
| W               Q.    E  +H         W                Q.      Q.   Q
|---------------|-------------------|---------------|------------------|
|---------------|-------------------|---------------|------------------|
|---------------|-------------------|---------------|------------------|
|---------------|-------------------|---------------|------------------|
|-0-------------|-8----10-(10)------|-0-------------|--8------10----7--|
|-0-------------|-8----10-(10)------|-0-------------|--8------10----7--|


  Q.   E +H       Q.    Q      E Q
|---------------|-------------------|
|---------------|-------------------|
|-7----9-(9)----|-7----10------9-5--|
|---------------|-------------------|
|---------------|-------------------|
|---------------|-------------------|
|
| W               Q.    E  +H
|---------------|-------------------|
|---------------|-------------------|
|---------------|-------------------|
|---------------|-------------------|
|-0-------------|-8----10-(10)------|
|-0-------------|-8----10-(10)------|


   Q.    E  +H        E   E  E  E   +H
|------------------|------------------------|
|------------------|------------------------|
|-15----14-(14)----|-15--12-15-14--(14)-----|
|------------------|------------------------|
|------------------|------------------------|
|------------------|------------------------|
|
|  W                  Q.        Q.       Q
|------------------|------------------------|
|------------------|------------------------|
|------------------|------------------------|
|------------------|------------------------|
|--8---------------|--5---------7--------3--|
|--8---------------|--5---------7--------3--|


    Q=238
    E E E E E E E E   E E E E E E Q    E E E E E E E E   E E E E E E E E
||------------------|----------------|-----------------|----------------|
||o-----------------|----------------|-----------------|----------------|
||------------------|----------------|-----------------|----------------|
||------------------|----------------|-----------------|----------------|
||o-----5---5-------|-4---4-0-1-0-4--|-----5---5-------|-8-7-5---5------|
||--0-0---0---0-0-0-|---0------------|-0-0---0---0-0-0-|-------8---8-7-5|
|
|   E E E E E E E E   E E E E E E Q    E E E E E E E E   E E E E E E E E
||------------------|----------------|-----------------|----------------|
||o-----------------|----------------|-----------------|----------------|
||------------------|----------------|-----------------|----------------|
||------------------|----------------|-----------------|----------------|
||o-----5---5-------|-4---4-0-1-0-4--|-----5---5-------|-8-7-5---5------|
||--0-0---0---0-0-0-|---0------------|-0-0---0---0-0-0-|-------8---8-7-5|


  E E E E E E E E   E E E E E E Q    E E q  q  q    E E q  q  q
|-----------------|----------------|--------------|---------------||
|-----------------|----------------|--------------|--------------o||
|-----------------|----------------|--------------|---------------||
|-----------------|----------------|--------------|---------------||
|-----5---5-------|-4---4-0-1-0-4--|-0-1----1-----|-0-1----1-----o||
|-0-0---0---0-0-0-|---0------------|-----5-----5--|-----5-----5---||
|
| E E E E E E E E   E E E E E E Q    E E q  q  q    E E q  q  q
|-----------------|----------------|--------------|---------------||
|-----------------|----------------|--------------|--------------o||
|-----------------|----------------|--------------|---------------||
|-----------------|----------------|--------------|---------------||
|-----5---5-------|-4---4-0-1-0-4--|-0-1----1-----|-0-1----1-----o||
|-0-0---0---0-0-0-|---0------------|-----5-----5--|-----5-----5---||


  E E E E E E E E   E E E E E E Q    E E E E E E E E   E E E E E E  E E
|-----------------|----------------|-----------------|------------------|
|-----------------|----------------|-----------------|------------------|
|-----------------|----------------|-----------------|------------------|
|-----------------|----------------|-----------------|------------------|
|-----8---8-------|-7---7-4-5-4-7--|-----8---8-------|-8-7-5---5--------|
|-0-0---0---0-0-0-|---0------------|-0-0---0---0-0-0-|-------8---8--7-5-|
|
| E E E E E E E E   E E E E E E Q    E E E E E E E E   E E E E E E  E E
|-----------------|----------------|-----------------|------------------|
|-----------------|----------------|-----------------|------------------|
|-----------------|----------------|-----------------|------------------|
|-----------------|----------------|-----------------|-7-5--------------|
|-----8---8-------|-7---7-4-5-4-7--|-----8---8-------|-----8-5-8-5------|
|-0-0---0---0-0-0-|---0------------|-0-0---0---0-0-0-|-------------10-8-|


  E E E E E E E E   E E E E E E Q
|-----------------|----------------|
|-----------------|----------------|
|-----------------|----------------|
|-----------------|----------------|
|-----8---8-------|-7---7-4-5-4-7--|
|-0-0---0---0-0-0-|---0------------|
|
| E E E E E E E E   E E E E E E Q
|-----------------|----------------|
|-----------------|----------------|
|-----------------|----------------|
|-----------------|----------------|
|-----8---8-------|-7---7-4-5-4-7--|
|-0-0---0---0-0-0-|---0------------|


   E E  E  E  E  E E  E    E  E E  E E  E Q
|-----------------------|--------------------|
|-----------------------|--------------------|
|-10-9--7-----7---------|-12-10-9----9-10-9--|
|---------10----10-8--7-|---------12---------|
|-----------------------|--------------------|
|-----------------------|--------------------|
|
|  E E  E  E  E  E E  E    E  E E  E E  E Q
|-----------------------|--------------------|
|-10-8------------------|-11-10-8----8-10-8--|
|------10--9-10--9-7----|---------10---------|
|--------------------10-|--------------------|
|-----------------------|--------------------|
|-----------------------|--------------------|


    Q=122
    Q.   E +H       Q.    Q      E Q    Q.   E +H        Q.      Q.   Q
||----------------|-------------------|---------------|-----------------|
||o---------------|-------------------|---------------|-----------------|
||--7----9-(9)----|-7----10------9-5--|-7----9-(9)----|-12b14r==10----9-|
||----------------|-------------------|---------------|-----------------|
||o---------------|-------------------|---------------|-----------------|
||----------------|-------------------|---------------|-----------------|
|
|   W               Q.    E  +H         W                Q.      Q.   Q
||----------------|-------------------|---------------|-----------------|
||o---------------|-------------------|---------------|-----------------|
||----------------|-------------------|---------------|-----------------|
||----------------|-------------------|---------------|-----------------|
||o-0-------------|-8----10-(10)------|-0-------------|--8------10----7-|
||--0-------------|-8----10-(10)------|-0-------------|--8------10----7-|


  Q.   E +H       Q.    Q      E Q
|---------------|-------------------|
|---------------|-------------------|
|-7----9-(9)----|-7----10------9-5--|
|---------------|-------------------|
|---------------|-------------------|
|---------------|-------------------|
|
| W               Q.    E  +H
|---------------|-------------------|
|---------------|-------------------|
|---------------|-------------------|
|---------------|-------------------|
|-0-------------|-8----10-(10)------|
|-0-------------|-8----10-(10)------|


   Q.    E  +H        E   E  E  E   +H
|------------------|-------------------------||
|------------------|------------------------o||
|-15----14-(14)----|-15--12-15-14--(14)------||
|------------------|-------------------------||
|------------------|------------------------o||
|------------------|-------------------------||
|
|  W                  Q.        Q.       Q
|------------------|-------------------------||
|------------------|------------------------o||
|------------------|-------------------------||
|------------------|-------------------------||
|--8---------------|--5---------7--------3--o||
|--8---------------|--5---------7--------3---||


   H.         +E    S  S    H     +E   e. e.     W          E E E E H
|------------------------|--------------------|-----------|--------------|
|-12---------(12)--------|--------------------|-----------|--------------|
|-12b13======(12)r-12-10-|-12----(12)-10--9---|-10--------|-5------------|
|------------------------|--------------------|-----------|---7-6-5-3----|
|------------------------|--------------------|-----------|--------------|
|------------------------|--------------------|-----------|--------------|
|
|  W                        H     +E   e. e.     W          W
|------------------------|--------------------|-----------|--------------|
|------------------------|--------------------|-----------|--------------|
|------------------------|--------------------|-----------|--------------|
|------------------------|--------------------|-----------|--------------|
|--8---------------------|--7-----(7)--5--3---|--7--------|-5------------|
|--8---------------------|--7-----(7)--5--3---|--7--------|-5------------|


   E  S  S  Q      E  Q.     Q.    S  S   S   S   S  S Q
|-------------------------|-------------------------------|
|----------12-------------|-10----------------------------|
|----10-12-12b14--10------|-10-------------------------9--|
|-12-----------------12---|-------12-10--12--10-----10----|
|-------------------------|----------------------12-------|
|-------------------------|-------------------------------|
|
|  W                         H       +E   e.  e.
|-------------------------|-------------------------------|
|-------------------------|-------------------------------|
|-------------------------|-------------------------------|
|-------------------------|-------------------------------|
|--8----------------------|--7-------(7)--5---3-----------|
|--8----------------------|--7-------(7)--5---3-----------|


         |--3--|
  +E   E E  E  E  H       H        H
|----------------------|-------------------|
|----------------------|-13b15----17b18----|
|-(9)----9-10-12-14----|-------------------|
|-----12---------------|-------------------|
|----------------------|-------------------|
|----------------------|-------------------|
|
|  W                      H        H
|----------------------|-------------------|
|----------------------|-------------------|
|----------------------|-------------------|
|----------------------|-------------------|
|--7-------------------|--8-------10-------|
|--7-------------------|--8-------10-------|


   E  E  E  E      E  E  E  E     Q      S  S E +H
|------------------------------|------------------------|
|------------------------------|------------------------|
|------------------------------|------------------------|
|-10-10-10-10b12==10-10-10-10r-|-10b12---8----8-(8)-----|
|------------------------------|-----------10-----------|
|------------------------------|------------------------|
|
|  E  E  E  E      E  E  E  E     E    E E  E E  E  E E
|------------------------------|------------------------|
|------------------------------|------------------------|
|------------------------------|------------------------|
|------------------------------|------------------------|
|--0--0--0--0------0--0--0--0--|--0----0-0--0-0--0--0-0-|
|--0--0--0--0------0--0--0--0--|--0----0-0--0-0--0--0-0-|


   Q   S  S  H    S  S    S  S  S E  S   E  +Q.     E
|----------------------|----------------------------------|
|----------------------|----------------------------------|
|-10--12-10-12---------|-10-------9-10-------------12b14--|
|----------------10-12-|----12-10-------12-(12)-----------|
|----------------------|----------------------------------|
|----------------------|----------------------------------|
|
|  W                      H         +E   E      Q
|----------------------|----------------------------------|
|----------------------|----------------------------------|
|----------------------|----------------------------------|
|----------------------|----------------------------------|
|--8-------------------|--5---------(5)--7------7---------|
|--8-------------------|--5---------(5)--7------7---------|


   H            H          S  S S S S S  S S S  S S S S S  S S
|------------------------|-------------------------------------|
|------------------------|-------------------------------------|
|-12b14========12r-------|-9-10-9-7-9-7----7-9-10-9-7-9-7----7-|
|------------------------|--------------10----------------10---|
|------------------------|-------------------------------------|
|------------------------|-------------------------------------|
|
|  E     E E E  E  E E E   E    E   E    E   E    E   E    E
|------------------------|-------------------------------------|
|------------------------|-------------------------------------|
|------------------------|-------------------------------------|
|------------------------|-------------------------------------|
|--0-----0-0-0--0--0-0-0-|-0----0---0----0---0----0---0----0---|
|--0-----0-0-0--0--0-0-0-|-0----0---0----0---0----0---0----0---|


  E  E E  E  +H        S   S  S  S  S  S  S   S  S  S  S  S  S  S  S  S
|--------10-(10)----|------------------------------------------------------|
|-8-11-8------------|------------------------------13-15----13-15-13-15----|
|-------------------|-----------------12-15--12-15-------12----------------|
|-------------------|-----12-15-12-15--------------------------------------|
|-------------------|-15---------------------------------------------------|
|-------------------|------------------------------------------------------|
|
| W                    Q.                 Q.                 Q
|-------------------|------------------------------------------------------|
|-------------------|------------------------------------------------------|
|-------------------|------------------------------------------------------|
|-------------------|------------------------------------------------------|
|-8-----------------|--5------------------3------------------1-------------|
|-8-----------------|--5------------------3------------------1-------------|


  Q=238
   W                  +W                 W                 W
|-17---------------|-(17)--------------|-----------------|-----------------|
|------------------|-------------------|-----------------|-----------------|
|------------------|-------------------|-----------------|-----------------|
|------------------|-------------------|-----------------|-----------------|
|------------------|-------------------|-----------------|-----------------|
|------------------|-------------------|-----------------|-----------------|
|
|  E E E E E E E E     E  E E E E E Q    E E E E E E E E   E E E E E E E E
|------------------|-------------------|-----------------|-----------------|
|------------------|-------------------|-----------------|-----------------|
|------------------|-------------------|-----------------|-----------------|
|------------------|-------------------|-----------------|-----------------|
|------5---5-------|---4----4-0-1-0-4--|-----5---5-------|-8-7-5---5-------|
|--0-0---0---0-0-0-|------0------------|-0-0---0---0-0-0-|-------8---8-7-5-|


  W                 W                E E q  q  q    E E q  q  q
|-----------------|----------------|--------------|--------------|
|-----------------|----------------|--------------|--------------|
|-----------------|----------------|--------------|--------------|
|-----------------|----------------|--------------|--------------|
|-----------------|----------------|-0-1----1-----|-0-1----1-----|
|-----------------|----------------|-----5-----5--|-----5-----5--|
|
| E E E E E E E E   E E E E E E Q    E E q  q  q    E E q  q  q
|-----------------|----------------|--------------|--------------|
|-----------------|----------------|--------------|--------------|
|-----------------|----------------|--------------|--------------|
|-----------------|----------------|--------------|--------------|
|-----5---5-------|-4---4-0-1-0-4--|-0-1----1-----|-0-1----1-----|
|-0-0---0---0-0-0-|---0------------|-----5-----5--|-----5-----5--|


    E E E E E E Q    E E E E E E Q    E E E E E E E E   E E E E E E E E
||-----------------|----------------|-----------------|----------------|
||o----------------|----------------|-----------------|----------------|
||-----------------|----------------|-----------------|----------------|
||-----------------|----------------|-----------------|----------------|
||o---------5-4-6--|---------4-3-6--|-----------------|----------------|
||--5-5-5-5--------|-5-5-5-5--------|-4-4-4-4-4-4-4-4-|-1-1-1-1-1-1-1-1|
|
|   E E E E E E Q    E E E E E E Q    E E E E E E E E   E E E E E E E E
||-----------------|----------------|-----------------|----------------|
||o----------------|----------------|-----------------|----------------|
||-----------------|----------------|-----------------|----------------|
||-----------------|----------------|-----------------|----------------|
||o---------5-4-6--|---------4-3-6--|-----------------|----------------|
||--5-5-5-5--------|-5-5-5-5--------|-4-4-4-4-4-4-4-4-|-1-1-1-1-1-1-1-1|


  E E E E E E Q    E E E E E E Q    Q  Q  Q  Q    Q  Q  Q  Q
|----------------|----------------|-------------|--------------||
|----------------|----------------|-------------|-------------o||
|----------------|----------------|-3--3--3--6--|-6--6--6--6---||
|----------------|----------------|-------------|--------------||
|---------5-4-6--|---------4-3-6--|-1--1--1--4--|-4--4--4--4--o||
|-5-5-5-5--------|-5-5-5-5--------|-------------|--------------||
|
| E E E E E E Q    E E E E E E Q    Q  Q  Q  Q    Q  Q  Q  Q
|----------------|----------------|-------------|--------------||
|----------------|----------------|-------------|-------------o||
|----------------|----------------|-6--6--6--9--|-9--9--9--9---||
|----------------|----------------|-------------|--------------||
|---------5-4-6--|---------4-3-6--|-4--4--4--7--|-7--7--7--7--o||
|-5-5-5-5--------|-5-5-5-5--------|-------------|--------------||


    Q=122
    E E E E E E E E    E  E E E E E E E
||--1-----0-----1---|-----0-----1-------|
||o---3-----3-----3-|-------3-----3---3-|
||------2-----2-----|--2------2-----2---|
||------------------|-------------------|
||o-----------------|-------------------|
||------------------|-------------------|
|
|   W                 +W
||------------------|-------------------|
||o-----------------|-------------------|
||------------------|-------------------|
||------------------|-------------------|
||o-0---------------|-(0)---------------|
||--0---------------|-(0)---------------|


   E  E E E E E E E    E  E E E E E E E
|--1------0-----1---|-----0-----1---------||
|-----3-----3-----3-|-------3-----3---3--o||
|-------2-----2-----|--2------2-----2-----||
|-------------------|---------------------||
|-------------------|--------------------o||
|-------------------|---------------------||
|
| +W                  +H        Q   Q
|-------------------|---------------------||
|-------------------|--------------------o||
|-------------------|---------------------||
|-------------------|---------------------||
|-(0)---------------|-(0)-------1---1----o||
|-(0)---------------|-(0)-------1---1-----||


   E  E  E  E  E  E  E  E    E  E  E  E  E  E  E  E
|-------------------------|-------------------------|
|-------------------------|-------------------------|
|-15-14-14-14-14-12-12-12-|-12-10-10-10-10--9--9--9-|
|-------------------------|-------------------------|
|-13-12-12-12-12-10-10-10-|-10--8--8--8--8--7--7--7-|
|-------------------------|-------------------------|
|
|  E  E  E  E  E  E  E  E    E  E  E  E  E  E  E  E
|-------------------------|-------------------------|
|-11-11-11-11-11-11-11-11-|-11-11-11-11-11-13-13-13-|
|-------------------------|-------------------------|
|--8--8--8--8--8--8--8--8-|--8--8--8--8--8-10-10-10-|
|--8--8--8--8--8--8--8--8-|--8--8--8--8--8-10-10-10-|
|--8--8--8--8--8--8--8--8-|--8--8--8--8--8-10-10-10-|


   E  E  E  E  E  E  E  E    E  E  E  E E E E E
|-------------------------|---------------------|
|-------------------------|---------------------|
|-14-12-12-12-12-10-10-10-|-10--9--9--9-5-5-5-5-|
|-------------------------|---------------------|
|-12-10-10-10-10--8--8--8-|--8--7--7--7-3-3-3-3-|
|-------------------------|---------------------|
|
|  E  E  E  E  E  E  E  E    E  E  E  E Q   Q
|-------------------------|---------------------|
|-10-10-10-10-10-10-10-10-|-10-10-10-10---------|
|-------------------------|---------------------|
|--7--7--7--7--7--7--7--7-|--7--7--7--7---------|
|--7--7--7--7--7--7--7--7-|--7--7--7--7-1---1---|
|--7--7--7--7--7--7--7--7-|--7--7--7--7-1---1---|


     E  E  E  E  E  E  E  E    E   E  E  E  E  E  E  E
||--------------------------|--------------------------|
||o-------------------------|--------------------------|
||--10--9--7-10--9--7-10--9-|-10---9--7-10--9--7-10--9-|
||--------------------------|--------------------------|
||o-------------------------|--------------------------|
||--------------------------|--------------------------|
|
|    W                        +W
||--------------------------|--------------------------|
||o-------------------------|--------------------------|
||--------------------------|--------------------------|
||--------------------------|--------------------------|
||o--0----------------------|-(0)----------------------|
||---0----------------------|-(0)----------------------|
|
|   Gtr VI
|    E  E  E  E  E  E  E  E    E   E  E  E  E  E  E  E
||--------------------------|--------------------------|
||o-------------------------|--------------------------|
||--14-12-10-14-12-10-14-12-|-14--12-10-14-12-10-14-12-|
||--------------------------|--------------------------|
||o-------------------------|--------------------------|
||--------------------------|--------------------------|


   E   E  E  E  E  E  E  E    E   E  E  E  E  E  E  E
|--------------------------|--------------------------||
|--------------------------|-------------------------o||
|-10---9--7-10--9--7-10--9-|-10---9--7-10--9--7-10--9-||
|--------------------------|--------------------------||
|--------------------------|-------------------------o||
|--------------------------|--------------------------||
|
| +W                         +H            Q     Q
|--------------------------|--------------------------||
|--------------------------|-------------------------o||
|--------------------------|--------------------------||
|--------------------------|--------------------------||
|-(0)----------------------|-(0)-----------1-----1---o||
|-(0)----------------------|-(0)-----------1-----1----||
|
|  E   E  E  E  E  E  E  E    E   E  E  E  E  E  E  E
|--------------------------|--------------------------||
|--------------------------|-------------------------o||
|-14--12-10-14-12-10-14-12-|-14--12-10-14-12-10-14-12-||
|--------------------------|--------------------------||
|--------------------------|-------------------------o||
|--------------------------|--------------------------||


   E  E  E  E  E  E  E  E    E  E  E  E  E  E  E  E
|-------------------------|-------------------------|
|-------------------------|-------------------------|
|-15-14-14-14-14-12-12-12-|-12-10-10-10-10-12-12-12-|
|-------------------------|-------------------------|
|-13-12-12-12-12-10-10-10-|-10--8--8--8--8-10-10-10-|
|-------------------------|-------------------------|
|
|  E  E  E  E  E  E  E  E    E  E  E  E  E  E  E  E
|-------------------------|-------------------------|
|-11-11-11-11-11-11-11-11-|-11-11-11-11-11-13-13-13-|
|-------------------------|-------------------------|
|--8--8--8--8--8--8--8--8-|--8--8--8--8--8-10-10-10-|
|--8--8--8--8--8--8--8--8-|--8--8--8--8--8-10-10-10-|
|--8--8--8--8--8--8--8--8-|--8--8--8--8--8-10-10-10-|


   E  E  E  E  E  E  E  E    E  E  E  E  E  E  E  E
|-------------------------|-------------------------|
|-------------------------|-------------------------|
|-14-12-12-12-12-10-10-10-|-10--9--9--9--9-10-10-10-|
|-------------------------|-------------------------|
|-12-10-10-10-10--8--8--8-|--8--7--7--7--7--8--8--8-|
|-------------------------|-------------------------|
|
|  E  E  E  E  E  E  E  E    E  E  E  E  E  E  E  E
|-------------------------|-------------------------|
|-10-10-10-10-10-10-10-10-|-10-10-10-10-10-11-11-11-|
|-------------------------|-------------------------|
|--7--7--7--7--7--7--7--7-|--7--7--7--7--7--8--8--8-|
|--7--7--7--7--7--7--7--7-|--7--7--7--7--7--8--8--8-|
|--7--7--7--7--7--7--7--7-|--7--7--7--7--7--8--8--8-|


   E  E  E  E  E  E  E  E    E  E  E  E  E  E  E  E
|-------------------------|-------------------------|
|-------------------------|-------------------------|
|-12-10-10-10-10--9--9--9-|--9--7--7--7--7--9--9--9-|
|-------------------------|-------------------------|
|-10--8--8--8--8--7--7--7-|--7--5--5--5--5--7--7--7-|
|-------------------------|-------------------------|
|
|  E  E  E  E  E  E  E  E    E  E  E  E  E  E  E  E
|-------------------------|-------------------------|
|-11-11-11-11-11-11-11-11-|-11-11-11-11-11-13-13-13-|
|-------------------------|-------------------------|
|--8--8--8--8--8--8--8--8-|--8--8--8--8--8-10-10-10-|
|--8--8--8--8--8--8--8--8-|--8--8--8--8--8-10-10-10-|
|--8--8--8--8--8--8--8--8-|--8--8--8--8--8-10-10-10-|


   E  E  E  E  E  E  E  E    E  E  E  E Q  Q
|-------------------------|-------------------|
|-------------------------|-------------------|
|-14-12-12-12-12-10-10-10-|-10--9--9--9-5--5--|
|-------------------------|-------------------|
|-12-10-10-10-10--8--8--8-|--8--7--7--7-3--3--|
|-------------------------|-------------------|
|
|  E  E  E  E  E  E  E  E    E  E  E  E Q  Q
|-------------------------|-------------------|
|-10-10-10-10-10-10-10-10-|-10-10-10-10-------|
|-------------------------|-------------------|
|--7--7--7--7--7--7--7--7-|--7--7--7--7-------|
|--7--7--7--7--7--7--7--7-|--7--7--7--7-1--1--|
|--7--7--7--7--7--7--7--7-|--7--7--7--7-1--1--|


  W
|------|
|------|
|------|
|------|
|-0----|
|-0----|
|
| W
|------|
|------|
|------|
|------|
|-0----|
|-0----|




--------------------------------------------------------------------------------


Duration Legend
---------------
W - whole; H - half; Q - quarter; E - 8th; S - 16th; T - 32nd; X - 64th; a - acciaccatura
+ - note tied to previous; . - note dotted; .. - note double dotted
Uncapitalized letters represent notes that are staccato (1/2 duration)
Irregular groupings are notated above the duration line
Duration letters will always appear directly above the note/fret number it represents the
duration for.  Duration letters with no fret number below them represent rests.  Multi-
bar rests are notated in the form Wxn, where n is the number of bars to rest for.  Low
melody durations appear below the staff

Tablature Legend
----------------
 h   - hammer-on
 p   - pull-off
 b   - bend
 pb  - pre-bend
 r   - bend release (if no number after the r, then release immediately)
 /\  - slide into or out of (from/to "nowhere")
 s   - legato slide
 S   - shift slide
 - natural harmonic
[n]  - artificial harmonic
n(n) - tapped harmonic
 ~   - vibrato
 tr  - trill
 T   - tap
 TP  - trem. picking
 PM  - palm muting
\n/  - tremolo bar dip; n = amount to dip
 \n  - tremolo bar down
 n/  - tremolo bar up
/n\  - tremolo bar inverted dip
 =   - hold bend; also acts as connecting device for hammers/pulls
 <> - volume swell (louder/softer)
 x   - on rhythm slash represents muted slash
 o   - on rhythm slash represents single note slash

Misc Legend
-----------
 |  - bar
||  - double bar
||o - repeat start
o|| - repeat end
*|  - double bar (ending)
 :  - bar (freetime)
 $  - Segno
 &  - Coda
Tempo markers -  = BPM(8/16=s8/s16), where s8 = swing 8ths, s16 = swing 16ths



--------------------------------------------------------------------------------


Добавлено: 11.07.2012
Другие материалы по этой песне:
  • Аккорды и текст

Страница создана 11.07.2012
http://primanota.ru/himsa/sinwalkers-chords.htm
Привет, Гость.
Предлагаем пройти революционный курс по гитаре.
Подарок от PrimaNota.Ru, забирай!