PrimaNota.ru - самый крупный в мире бесплатный архив песенных текстов, аккордов, табулатур и нот


Himsa - Rain To The Sound Of Panic - текст песни, таба, бас-таба, видео

Регистрация Запомнить меня
Войти через:  Facebook Google Twitter Vk Yandex Mail.ru

Himsa - Rain To The Sound Of Panic - текст песни, таба, бас-таба, видео

Печатать
Просмотров: 140
Band:  HIMSA
Album: Courting Tragedy and Disaster
Song:  Rain to the sound of panic

Copyright (c)  Prosthetic Records, 2003
Version 1.0 - June 17th

Transcribed By: (M.L)
Email:          mart__420@hotmail.com


.  - palm mute           /  - slide up to
\  - slide down to       ~  - vibrato
h  - hammer on           b  - Bend
p  - pull off            Suffixes for bend
t  - tap                 f  - full bend    h - half bend
ph - pinched harmonic    q  - quarter bend t - tap bend
*  - see comment         ^  - Hold bend    r release bend
x  - Stuccatto           ~  - vibrato bend
,  - slight palm mute    () - ghost note, sustained note
"  - tremolo note        <> - Trill

Pay attention to the guitars on the right and also the number of times each
riff is played. Questions or comments, email me.

Tuning C G C F A D

Intro/Outro Riff
|--------------------------------|
|--------------------------------|Gtr.1+2
|--------------------------------|(1x)
|-8-7-4-3------------------------|
|-8-7-4-3—-5h6p5-3h5p3-1s3-------|
|-8-7-4-3------------------------|


0:03		 -		0:06 
|--------------------------------------------------------|
|--------------------------------------------------------|Gtr.1
|--------------------------------------------------------|
|-----------------------0--------------------------------|
|-5-6-5-6-9-8-6-5h6p5h6-0--------------------------------|
|--0-0-0-0-0-0-0--------0------1-0-4-3-------------------|
   . . . . . . .        .      . . . .                      
0:03		-		0:06
|--------------------------------------------------------|
|--------------------------------------------------------|Gtr.2
|--------------------------------------------------------|
|-0-------0-------------------------7-6h7p6--------------|
|-0-------0-------------5-6-5-6-9-8----------------------|
|-0-------0--------------0-0-0-0-0-0-0-------------------|
  .       .              . . . . . . . 
0:07  	      -		0:10
|------------------------------------------------|
|------------------------------------------------|Gtr.1
|-------------------------------------87---------|
|-77-8-77-8-11-10-9~------------------87-43------|
|-------------------------------------65-43------|
|--------------------0-1-0-3-0-1-0-3-----43------|
                     . . . . . . . .
0:07	      -         0:10
|------------------------------------------------|
|------------------------------------------------|Gtr.2
|-------------------------------------87---------|
|-------------------------------------87-43------|
|-5-6-5-6-9-8-7~----------------------65—43------|
|--0-0-0-0-0-0-------0-1-0-3-0-1-0-3-----43------|
   . . . . . .       . . . . . . . .

Riff1 - 0:12
|---------------------------------|
|---------------------------------|Gtr.1+2
|---------------------------------|(3x)
|---------------------------------|
|-5-6-5-6-9-8-6-5h6p5h6-----------|
|--0-0-0-0-0-0-0------------------|
   . . . . . . .                    

Riff1 Continued... - 0:19
|---------------------------------|
|---------------------------------|Gtr.1+2
|---------------------------------|(1x)
|-----------8-7-4-3---------------|
|-5-6-5-6---8-7-4-3---------------|
|--0-0-0-0--8-7-4-3---------------|
   . . . .
Riff2 - 0:21
|--------------------------------------------------------|
|--------------------------------------------------------|Gtr.1
|--------------------------------------------------------|(1x)
|-7-8-7-8-11-10-8-7h8p7h8-7-8-7-8-11-10-8~---------------|
|--------------------------------------------------------|
|--7-7-7-7--7--7-7---------7-7-7-7--7--7-----------------|
   . . . .  .  . .         . . . .  .  .
Riff2 - 0:21
|--------------------------------------------------------|
|--------------------------------------------------------|Gtr.2
|--------------------------------------------------------|(1x)
|---------------------------------------ph---------------|
|-7-8-7-8-11-10-8-7h8p7h8-7-8-7-8-11-10-8----------------|
|--7-7-7-7--7--7-7---------7-7-7-7--7--7-----------------|
   . . . .  .  . .         . . . .  .  .

Riff1 Continued...
|--------------------------------------------------------|
|--------------------------------------------------------|Gtr.1+2
|--------------------------------87----------------------|(3x)
|--------------------------------87-43-------------------|
|-5-6-5-6-9-8-6-5h6p5h6-5-6-5-6—-65-43-------------------|
|--0-0-0-0-0-0-0---------0-0-0-0----43-------------------|
   . . . . . . .         . . . . 

 Riff3 - 0:30
|-------------------------------------------|
|-------------------------------------------|Gtr.1+2
|-------------------------------------------|(2x)
|---5~------5-------------------------------|
|-------9~----9~6~---8-5-4-5-8-----1--------|
|-55--55--55-5-5---44-4-4-4-4-4-44-1----—---|
  ..  ..  .. . .   .. . . . . . .. . 

Riff3.1
|-------------------------------------------|
|-------------------------------------------|Gtr.1
|-------------------------------------------|(2x)
|---8~--7~--8~7~----------------------------|
|---------------9~---8-5-4-5-8-----1--------|
|-55--55--55-5-5---44-4-4-4-4-4-44-1----—---|
  ..  ..  .. . .   .. . . . . . .. .

Riff3.1 
|-------------------------------------------|
|-------------------------------------------|Gtr.2
|-------------------------------------------|(2x)
|---5~------5~------------------------------|
|-------9~----9~6~---8-5-4-5-8--------------|
|-55--55--55-5-5---44-4-4-4-4-4-44-1----—---|
  ..  ..  .. . .   .. . . . . . .. .

 0:49
|---------------------------------|
|---------------------------------|Gtr.1+2
|---------------------------------|(2x)
|---------------------------------|
|-5-6-5-6-9-8-6-5h6p5h6-----------|
|--0-0-0-0-0-0-0------------------|
   . . . . . . .

|---------------------------------|
|---------------------------------|Gtr.1
|---------------------------------|(1x)
|-7-8-7-8-11-10-8-7h8p7h8---------|
|---------------------------------|
|--0-0-0-0--0--0-0----------------|
   . . . .  .  . . 
|---------------------------------|
|---------------------------------|Gtr.2
|---------------------------------|(1x)
|---------------------------------|
|-5-6-5-6-9-8-6-5h6p5h6-----------|
|--0-0-0-0-0-0-0------------------|
   . . . . . . .
|---------------------------------|
|---------------------------------|Gtr.1+2
|---------------------------------|(1x)
|-7-8-7-8---8-7-4-3---------------|
|-5-6-5-6---8-7-4-3---------------|
|--0-0-0-0--8-7-4-3---------------|
   . . . . 

Riff3.0 (2x)
Riff3.1 (2x)

Riff4 - 1:17
|-------------------------------------------|
|-------------------------------------------|(Gtr.1+2)
|-------------------------------------------|(1x)
|-----------------7~---6~---7~--------------|
|---5-5---5-8---5----5----5---4~------------|
|-00----00-0--00-0-00-0-00---0--------------|
  ..    .. .  .. . .. . ..   .

|-------------------------------------------|
|-------------------------------------------|(Gtr.1+2)
|-------------------------------------------|(1x)
|-----------------7~---6b-------------------|
|---5-5---5-8---5----5----------------------|
|-00----00-0--00---00-----0653--------------|
  ..    .. .  ..   ..     ....

Riff4 Continued...
|-------------------------------------------|
|-------------------------------------------|Gtr.1
|-----------------7~---6~---7~--------------|(1x)
|---3-3---3-7---3----3----3---2~------------|
|-------------------------------------------|
|-00----00-0--00-0-00-0-00---0--------------|
  ..    .. .  .. . .. . ..   .

Riff4 Continued...
|-------------------------------------------|
|-------------------------------------------|Gtr.2
|-------------------------------------------|(1x)
|-----------------7~---6~---7~--------------|
|---5-5---5-8---5----5----5---4~------------|
|-00----00-0--00-0-00-0-00---0--------------|
  ..    .. .  .. . .. . ..   .

|---------------------------------------------------------------|
|---------------------------------------------------------------|Gtr.1
|-----------------7~---6----------------------------------------|(1x)
|---3-3---3-7---3----3---8h12p8h12p8h12p8h12-7h11p7h11p7h11p7h11|
|---------------------------------------------------------------|
|-00----00-0--00---00-------------------------------------------|
  ..    .. .  ..   ..

|---------------------------------------------------------------|
|---------------------------------------------------------------|Gtr.2
|---------------------------------------------------------------|(1x)
|-----------------7----6----------------------------------------|
|---5-5---5-8---5----5—--8h12p8h12p8h12p8h12-7h11p7h11p7h11p7h11|
|-00----00-0--00---00-------------------------------------------|
  ..    .. .  ..   ..

Riff5 - 1:36
|----------------------------------------------------------|
|----------------------------------------------------------|Gtr.1+2
|-----------------7----6------7----------------------------|(1x)
|---5-5---5-8---5----5------5---4--------------------------|
|----------------------------------------------------------|
|-55----55----55----55----55---5---------------------------|
  ..    ..    ..    ..    ..   .
|----------------------------------------------------------|
|----------------------ph----------------------------------|Gtr.1+2
|-----------------7----6~----------------------------------|(1x)
|---5-5---5-8---5----5-------------------------------------|
|----------------------------------------------------------|
|-55----55----55----55-------------------------------------|
  ..    ..    ..    ..

Riff4 Continued...
|-------------------------------------------|
|-------------------------------------------|(Gtr.1+2)
|-------------------------------------------|(1x)
|-----------------7~---6~---7~--------------|
|---5-5---5-8---5----5----5---4~------------|
|-00----00-0--00-0-00-0-00---0--------------|
  ..    .. .  .. . .. . ..   .






|---------------------------------------------------------------|
|---------------------------------------------------------------|Gt.1+2
|---------------------------------------------------------------|(1x)
|-----------------7~---6-8h12p8h12p8h12p8h12-7h11p7h11p7h11p7h11|
|---5-5---5-8---5----5—--8h12p8h12p8h12p8h12-7h11p7h11p7h11p7h11|
|-00----00----00---00-------------------------------------------|
  ..    ..    ..   ..

1:54 Slow Breakdown

Riff5 (Use Wah Pedal, High Treble)
|-------------------------------------------|
|-------------------------------------------|(2x)
|-------------------------------------------|Gtr.1
|---------7~-6~-7~-----------7~-6~----------|
|-3h5-58~5--5--5--4~-3h5-58~5--5------------|
|-------------------------------------------|
                           
|-------------------------------------------|
|-------------------------------------------|(2x)
|----------------------5--------------------|Gtr.2
|-0--------------------5-0------------------|
|-0--------------------3-0------------------|
|-0----------------------0----------06530---|
                                    .....
Riff5 Continued... 2:13
|-------------------------------------------|
|-------------------------------------------|(2x)
|-------------------------------------------|Gtr.1
|---------7~-6~-7~-----------7~-6~----------|
|-3h5-58~5--5--5--4~-3h5-58~5--5------------|
|-------------------------------------------|

Riff5... 2:13
|-------------------------------------------|
|-------------------------------------------|(2x)
|---------7~-6~-7~-----------7~-6~----------|Gtr.1
|------7~-----------------7~----------------|
|-7h8-8--8--8--8--7~-7h8-8--8--8------------|
|-----------------------------------06530---|
                                    .....
2:31
|--------------------------------------------------------|
|--------------------------------------------------------|(1x)
|--------------------------------------------------------|Gtr.1
|-5----------------3-------------1-----------------------|
|-5----------------3-------------1-----------------------|
|-5----------------3-------------1-----------------------|

|--------------------------------------------------------|
|--------------------------------------------------------|(1x)
|---------ph-ph-ph--------ph-ph---------ph-ph-ph---------|Gtr.2
|---------6~-7~-6~--------6~-7~---------6~-7~-6~---------|
|--3h5-85--5--5-----3h5-85--5-----3h5-85--5--5—4~--------|
|-5----------------3-------------1-----------------------|

|-------------------------------------------|
|-------------------------------------------|(1x)
|-------------------------------------------|Gtr.1
|-0---0---0---0------------------8-7-4-3----|
|-0---0---0---0------------------8-7-4-3----|
|-0---0---0---0---------0-1-0-1--8-7-4-3----|
  .   .   .   .         . . . .

|-------------------------------------------|
|-------------------------------------------|(1x)
|-------------------------------------------|Gtr.2
|--------------------------------8-7-4-3----|
|-5-6-5-6-9-8-6-5h6p5h6-5-6-5-6--8-7-4-3----|
|--0-0-0-0-0-0-0---------0-0-0-0-8-7-4-3----|
   . . . . . . .         . . . .

Solo (Gtr.1) - 2:49
                           
2:49
|----------------------------------------------------------------|
|---------------------------------------------------------------|(3.5x)
|----------------------------------------------------------------|Gtr.2
|-5---5---5---5---5---5---5-0h1/3-0---0---0---0---0---0---0---0—-|
|-5---5---5---5---5---5---5-0h1/3-0---0---0---0---0---0---0---0—-|
|---5---5---5---5---5---5---0h1/3---0---0---0---0---0---0---0---0|
    .   .   .   .   .   .   . . .   .   .   .   .   .   .   .   .

3:05
|---------------------------------|
|---------------------------------|Gtr.1+2
|---------------------------------|(2x)
|---------------------------------|
|-5-6-5-6-9-8-6-5h6p5h6-----------|
|--0-0-0-0-0-0-0------------------|
   . . . . . . .

|---------------------------------|
|---------------------------------|Gtr.1
|---------------------------------|(1x)
|-7-8-7-8-11-10-8-7h8p7h8---------|
|---------------------------------|
|--0-0-0-0--0--0-0----------------|
   . . . .  .  . .

|---------------------------------|
|---------------------------------|Gtr.2
|---------------------------------|(1x)
|---------------------------------|
|-5-6-5-6-9-8-6-5h6p5h6-----------|
|--0-0-0-0-0-0-0------------------|
   . . . . . . . 
|---------------------------------|
|---------------------------------|Gtr.1+2
|---------------------------------|(1x)
|-7-8-7-8---8-7-4-3---------------|
|-5-6-5-6---8-7-4-3---------------|
|--0-0-0-0--8-7-4-3---------------|
   . . . .

Riff3.0 (2x)
Riff3.1 (2x)

|---------------------------------|
|---------------------------------|Gtr.1+2
|---------------------------------|(2x)
|---------------------------------|
|-5-6-5-6-9-8-6-5h6p5h6-----------|
|--0-0-0-0-0-0-0------------------|
   . . . . . . .

|---------------------------------|
|---------------------------------|Gtr.1
|---------------------------------|(1x)
|-7-8-7-8-11-10-8-7h8p7h8---------|
|---------------------------------|
|--0-0-0-0--0--0-0----------------|
   . . . .  .  . .
|---------------------------------|
|---------------------------------|Gtr.2
|---------------------------------|(1x)
|---------------------------------|
|-5-6-5-6-9-8-6-5h6p5h6-----------|
|--0-0-0-0-0-0-0------------------|
   . . . . . . .
|---------------------------------|
|---------------------------------|Gtr.1+2
|---------------------------------|(1x)
|-7-8-7-8---8-7-4-3---------------|
|-5-6-5-6---8-7-4-3---------------|
|--0-0-0-0--8-7-4-3---------------|
   . . . . 

|-------------------------------------------------|
|-------------------------------------------------|(1x)
|-------------------------------------------------|Gtr.1+2
|-00--00--00--00--00--00--00--00--0---0---0---0---|
|-00--00--00--00--00--00--00--00--0---0---0---0---|
|-00--00--00--00--00--00--00--00--0---0---0---0---|
  ..  ..  ..  ..  ..  ..  ..  ..  .   .   .   .


Intro/Outro Riff
|--------------------------------|
|--------------------------------|Gtr.1+2
|--------------------------------|(1x)
|-8-7-4-3------------------------|
|-8-7-4-3—-5h6p5-3h5p3-1s3-------|
|-8-7-4-3------------------------|
Добавлено: 31.05.2012
Другие материалы по этой песне:

Страница создана 06.03.2012
http://primanota.ru/himsa/rain-to-the-sound-of-panic-chords.htm
Привет, Гость.
Предлагаем пройти революционный курс по гитаре.
Подарок от PrimaNota.Ru, забирай!