PrimaNota.ru - самый крупный в мире бесплатный архив песенных текстов, аккордов, табулатур и нот


Himsa - Pestilence - текст песни, таба, видео

Регистрация Запомнить меня
Войти через:  Facebook Google Twitter Vk Yandex Mail.ru

Himsa - Pestilence - текст песни, таба, видео

Печатать
Просмотров: 151
alright so i decided to go ahead and tab the whole thing out
this took some work so please rate and comment


 

 

Gtr I (C G C F A D) - 'Untitled'
Gtr II (C G C F A D) - 'Untitled'
Gtr III (C G C F A D) - 'Untitled'


  Q=148
 4/4
  Gtr I
  Q  E E +H        Q   E E +H       Q  E E +H        Q   E E +H
|---------------|-----------------|---------------|--------------------|
|-5--6----------|--5---6----------|-5--6----------|--5---6-------------|
|------7-(7)----|--------7-(7)----|------7-(7)----|--------7-(7)-------|
|---------------|-----------------|---------------|--------------------|
|---------------|-----------------|---------------|--------------------|
|---------------|-----------------|---------------|--------------------|
|
| Gtr II
|                                                             |--3---|
| W               +W                W               +H        Q   Q  Q
|---------------|-----------------|---------------|--------------------|
|---------------|-----------------|---------------|--------------------|
|---------------|-----------------|---------------|--------------------|
|-0-------------|-(0)-------------|-3-------------|-(3)-------8---7--3-|
|-0-------------|-(0)-------------|-3-------------|-(3)-------8---7--3-|
|-0-------------|-(0)-------------|-3-------------|-(3)-------8---7--3-|


  Q  E E +H        Q   E E +H       Q  E E +H       Q  E E +H
|---------------|-----------------|---------------|---------------|
|-5--6----------|--5---6----------|-5--6----------|-5--6----------|
|------7-(7)----|--------7-(7)----|------7-(7)----|------7-(7)----|
|---------------|-----------------|---------------|---------------|
|---------------|-----------------|---------------|---------------|
|---------------|-----------------|---------------|---------------|
|
| W               +W                W               W
|---------------|-----------------|---------------|---------------|
|---------------|-----------------|---------------|---------------|
|---------------|-----------------|---------------|---------------|
|-0-------------|-(0)-------------|-1-------------|---------------|
|-0-------------|-(0)-------------|-1-------------|-8-------------|
|-0-------------|-(0)-------------|-1-------------|-7-------------|


     S S S S S S S S  S S S  S S S  S S
||--------------------------------------|
||o-------------------------------------|
||--------------------------------------|
||--12-0-0-0-0-0-0-0-14-0-0-12-0-0-10-0-|
||o-------------------------------------|
||--------------------------------------|
|
|    W
||--------------------------------------|
||o-------------------------------------|
||--------------------------------------|
||--------------------------------------|
||o-------------------------------------|
||--------------------------------------|


   S  S S S S S S S  S S S  S S S  S S
|---------------------------------------|
|---------------------------------------|
|---------------------------------------|
|-10-12-0-0-0-0-0-0-14-0-0-12-0-0-14-0--|
|---------------------------------------|
|---------------------------------------|
|
|  W
|---------------------------------------|
|---------------------------------------|
|---------------------------------------|
|---------------------------------------|
|---------------------------------------|
|---------------------------------------|


   S  S S S S S S S  S S S  S S S  S S
|--------------------------------------|
|--------------------------------------|
|--------------------------------------|
|-14-15-0-0-0-0-0-0-17-0-0-15-0-0-17-0-|
|--------------------------------------|
|--------------------------------------|
|
|  W
|--------------------------------------|
|--------------------------------------|
|--------------------------------------|
|--------------------------------------|
|--------------------------------------|
|--------------------------------------|


   S S S  S S S  S S  S S S  S S S  S S
|------------------------------------------||
|-----------------------------------------o||
|------------------------------------------||
|-19-0-0-19-0-0-20-0-19-0-0-15-0-0-14-0----||
|-----------------------------------------o||
|------------------------------------------||
|
|  W
|------------------------------------------||
|-----------------------------------------o||
|------------------------------------------||
|------------------------------------------||
|-----------------------------------------o||
|------------------------------------------||


   S S S S S S S S  S S S  S S S  S S    S  S S S S S S S  S S S  S S S  S S
|-------------------------------------|----------------------------------------|
|-------------------------------------|----------------------------------------|
|-------------------------------------|----------------------------------------|
|-12-0-0-0-0-0-0-0-14-0-0-12-0-0-10-0-|-10-12-0-0-0-0-0-0-14-0-0-12-0-0-14-0---|
|-------------------------------------|----------------------------------------|
|-------------------------------------|----------------------------------------|
|
|  S S S S S S S S  S S S  S S S  S S    S  S S S S S S S  S S S  S S S  S S
|-------------------------------------|----------------------------------------|
|-------------------------------------|----------------------------------------|
|-------------------------------------|----------------------------------------|
|-12-0-0-0-0-0-0-0-17-0-0-15-0-0-14-0-|-14-15-0-0-0-0-0-0-17-0-0-15-0-0-17-0---|
|-------------------------------------|----------------------------------------|
|-------------------------------------|----------------------------------------|


   S  S S S S S S S  S S S  S S S  S S
|--------------------------------------|
|--------------------------------------|
|--------------------------------------|
|-14-15-0-0-0-0-0-0-17-0-0-15-0-0-17-0-|
|--------------------------------------|
|--------------------------------------|
|
|  S  S S S S S S S  S S S  S S S  S S
|--------------------------------------|
|--------------------------------------|
|--------------------------------------|
|-17-19-0-0-0-0-0-0-20-0-0-19-0-0-20-0-|
|--------------------------------------|
|--------------------------------------|


   S S S  S S S  S S  S S S  S S S  S S
|-----------------------------------------|
|-----------------------------------------|
|-----------------------------------------|
|-19-0-0-19-0-0-20-0-19-0-0-15-0-0-14-0---|
|-----------------------------------------|
|-----------------------------------------|
|
|  S S S  S S S  S S  S S S  S S S  S S
|-----------------------------------------|
|-----------------------------------------|
|-----------------------------------------|
|-22-0-0-22-0-0-24-0-19-0-0-17-0-0-17-0---|
|-----------------------------------------|
|-----------------------------------------|


   S S S S S S S S  S S S  S S S  S S    S  S S S S S S S  S S S  S S S  S S
|-------------------------------------|----------------------------------------|
|-------------------------------------|----------------------------------------|
|-------------------------------------|----------------------------------------|
|-12-0-0-0-0-0-0-0-14-0-0-12-0-0-10-0-|-10-12-0-0-0-0-0-0-14-0-0-12-0-0-14-0---|
|-------------------------------------|----------------------------------------|
|-------------------------------------|----------------------------------------|
|
|  S S S S S S S S  S S S  S S S  S S    S  S S S S S S S  S S S  S S S  S S
|-------------------------------------|----------------------------------------|
|-------------------------------------|----------------------------------------|
|-------------------------------------|----------------------------------------|
|-12-0-0-0-0-0-0-0-17-0-0-15-0-0-14-0-|-14-15-0-0-0-0-0-0-17-0-0-15-0-0-17-0---|
|-------------------------------------|----------------------------------------|
|-------------------------------------|----------------------------------------|


   S  S S S S S S S  S S S  S S S  S S    Q   E  E  +H
|--------------------------------------|-------------------|
|--------------------------------------|-------------------|
|--------------------------------------|-------------------|
|-14-15-0-0-0-0-0-0-17-0-0-15-0-0-17-0-|-15--17-14-(14)----|
|--------------------------------------|-------------------|
|--------------------------------------|-------------------|
|
|  S  S S S S S S S  S S S  S S S  S S    Q   E  E  +H
|--------------------------------------|-------------------|
|--------------------------------------|-------------------|
|--------------------------------------|-------------------|
|-17-19-0-0-0-0-0-0-20-0-0-19-0-0-20-0-|-19--20-17-(17)----|
|--------------------------------------|-------------------|
|--------------------------------------|-------------------|


  S S S S S S S S S S S S S S S S   S S S S S S S S S S S S S S S S
|---------------------------------|-----------------------------------|
|---------------------------------|-----------------------------------|
|---------------------------------|-----------------------------------|
|---------------------------------|-----------------------------------|
|---------------------------------|-----------------------------------|
|-0-0-0-1-0-0-3-0-0-0-0-1-0-0-3-0-|-0-0-0-1-0-0-3-0-0-0-0-7-0-0-8-0---|
|
| W                                 W
|---------------------------------|-----------------------------------|
|---------------------------------|-----------------------------------|
|---------------------------------|-----------------------------------|
|---------------------------------|-----------------------------------|
|---------------------------------|-----------------------------------|
|---------------------------------|-----------------------------------|


  S S S S S S S S S S S S S S S S   S S S S S S S S S S S S Q
|---------------------------------|------------------------------|
|---------------------------------|------------------------------|
|---------------------------------|------------------------------|
|---------------------------------|------------------------------|
|---------------------------------|-------------------------1----|
|-0-0-0-1-0-0-3-0-0-0-0-1-0-0-3-0-|-0-0-0-1-0-0-3-0-0-0-0-0-1----|
|
| W                                 H               S S S S Q
|---------------------------------|------------------------------|
|---------------------------------|------------------------------|
|---------------------------------|------------------------------|
|---------------------------------|------------------------------|
|---------------------------------|-------------------------1----|
|---------------------------------|-----------------0-0-0-0-1----|


    S S S S S S S S S S S S S S S S   S S S S S S S S S S S S S S S S
||----------------------------------|-----------------------------------||
||o---------------------------------|----------------------------------o||
||----------------------------------|-----------------------------------||
||----------------------------------|-----------------------------------||
||o---------------------------------|----------------------------------o||
||--0-0-0-1-0-0-3-0-0-0-0-1-0-0-3-0-|-0-0-0-1-0-0-3-0-0-0-0-7-0-0-8-0---||
|
|   S S S S S S S S S S S S S S S S   S S S S S S S S S S S S S S S S
||----------------------------------|-----------------------------------||
||o---------------------------------|----------------------------------o||
||----------------------------------|-----------------------------------||
||----------------------------------|-----------------------------------||
||o---------------------------------|----------------------------------o||
||--0-0-0-1-0-0-3-0-0-0-0-1-0-0-3-0-|-0-0-0-1-0-0-3-0-0-0-0-7-0-0-8-0---||


  S S S S S S S S S S S S S S S S   S S S S S S S S S S S S S S S S
|---------------------------------|-----------------------------------|
|---------------------------------|-----------------------------------|
|---------------------------------|-----------------------------------|
|---------------------------------|-----------------------------------|
|---------------------------------|-----------------------------------|
|-2-2-2-3-2-2-5-2-2-2-2-3-2-2-5-2-|-2-2-2-3-2-2-5-2-2-2-2-3-2-2-5-2---|
|
| S S S S S S S S S S S S S S S S   S S S S S S S S S S S S S S S S
|---------------------------------|-----------------------------------|
|---------------------------------|-----------------------------------|
|---------------------------------|-----------------------------------|
|---------------------------------|-----------------------------------|
|---------------------------------|-----------------------------------|
|-2-2-2-3-2-2-5-2-2-2-2-3-2-2-5-2-|-2-2-2-3-2-2-5-2-2-2-2-3-2-2-5-2---|


  S S S S S S S S S S S S S S S S   S S S S S S S S S S S S S S S S
|---------------------------------|-----------------------------------|
|---------------------------------|-----------------------------------|
|---------------------------------|-----------------------------------|
|---------------------------------|-----------------------------------|
|---------------------------------|-----------------------------------|
|-2-2-2-3-2-2-5-2-2-2-2-3-2-2-5-2-|-2-2-2-3-2-2-5-2-0-0-0-1-0-0-3-0---|
|
| S S S S S S S S S S S S S S S S   S S S S S S S S S S S S S S S S
|---------------------------------|-----------------------------------|
|---------------------------------|-----------------------------------|
|---------------------------------|-----------------------------------|
|---------------------------------|-----------------------------------|
|---------------------------------|-----------------------------------|
|-2-2-2-3-2-2-5-2-2-2-2-3-2-2-5-2-|-2-2-2-3-2-2-5-2-0-0-0-1-0-0-3-0---|


  S S S S S S S S S S S S S S S S   S S S S S S S S S S S S S S S S
|---------------------------------|-----------------------------------|
|---------------------------------|-----------------------------------|
|---------------------------------|-----------------------------------|
|---------------------------------|-----------------------------------|
|---------------------------------|-----------------------------------|
|-0-0-0-1-0-0-3-0-0-0-0-1-0-0-3-0-|-0-0-0-1-0-0-3-0-0-0-0-7-0-0-8-0---|
|
| S S S S S S S S S S S S S S S S   S S S S S S S S S S S S S S S S
|---------------------------------|-----------------------------------|
|---------------------------------|-----------------------------------|
|---------------------------------|-----------------------------------|
|---------------------------------|-----------------------------------|
|---------------------------------|-----------------------------------|
|-0-0-0-1-0-0-3-0-0-0-0-1-0-0-3-0-|-0-0-0-1-0-0-3-0-0-0-0-7-0-0-8-0---|


  S S S S S S S S S S S S S S S S   S S S S S S S S S S S S Q
|---------------------------------|------------------------------|
|---------------------------------|------------------------------|
|---------------------------------|------------------------------|
|---------------------------------|------------------------------|
|---------------------------------|-------------------------1----|
|-0-0-0-1-0-0-3-0-0-0-0-1-0-0-3-0-|-0-0-0-1-0-0-3-0-0-0-0-0-1----|
|
| S S S S S S S S S S S S S S S S   S S S S S S S S S S S S Q
|---------------------------------|------------------------------|
|---------------------------------|------------------------------|
|---------------------------------|------------------------------|
|---------------------------------|------------------------------|
|---------------------------------|-------------------------1----|
|-0-0-0-1-0-0-3-0-0-0-0-1-0-0-3-0-|-0-0-0-1-0-0-3-0-0-0-0-0-1----|


     S S S S S S S S  S S S  S S S  S S
||--------------------------------------|
||o-------------------------------------|
||--------------------------------------|
||--12-0-0-0-0-0-0-0-14-0-0-12-0-0-10-0-|
||o-------------------------------------|
||--------------------------------------|
|
|    S S S S S S S S  S S S  S S S  S S
||--------------------------------------|
||o-------------------------------------|
||--------------------------------------|
||--12-0-0-0-0-0-0-0-14-0-0-12-0-0-10-0-|
||o-------------------------------------|
||--------------------------------------|


   S  S S S S S S S  S S S  S S S  S S
|---------------------------------------|
|---------------------------------------|
|---------------------------------------|
|-10-12-0-0-0-0-0-0-14-0-0-12-0-0-14-0--|
|---------------------------------------|
|---------------------------------------|
|
|  S  S S S S S S S  S S S  S S S  S S
|---------------------------------------|
|---------------------------------------|
|---------------------------------------|
|-10-12-0-0-0-0-0-0-14-0-0-12-0-0-14-0--|
|---------------------------------------|
|---------------------------------------|


   S  S S S S S S S  S S S  S S S  S S
|--------------------------------------|
|--------------------------------------|
|--------------------------------------|
|-14-15-0-0-0-0-0-0-17-0-0-15-0-0-17-0-|
|--------------------------------------|
|--------------------------------------|
|
|  S  S S S S S S S  S S S  S S S  S S
|--------------------------------------|
|--------------------------------------|
|--------------------------------------|
|-14-15-0-0-0-0-0-0-17-0-0-15-0-0-17-0-|
|--------------------------------------|
|--------------------------------------|


   S S S  S S S  S S  S S S  S S S  S S
|------------------------------------------||
|-----------------------------------------o||
|------------------------------------------||
|-19-0-0-19-0-0-20-0-19-0-0-15-0-0-14-0----||
|-----------------------------------------o||
|------------------------------------------||
|
|  S S S  S S S  S S  S S S  S S S  S S
|------------------------------------------||
|-----------------------------------------o||
|------------------------------------------||
|-19-0-0-19-0-0-20-0-19-0-0-15-0-0-14-0----||
|-----------------------------------------o||
|------------------------------------------||


   S S S S S S S S  S S S  S S S  S S
|-------------------------------------|
|-------------------------------------|
|-------------------------------------|
|-12-0-0-0-0-0-0-0-14-0-0-12-0-0-10-0-|
|-------------------------------------|
|-------------------------------------|
|
|  S S S S S S S S  S S S  S S S  S S
|-------------------------------------|
|-------------------------------------|
|-------------------------------------|
|-12-0-0-0-0-0-0-0-17-0-0-15-0-0-14-0-|
|-------------------------------------|
|-------------------------------------|
|
| Gtr III
|  W
|-------------------------------------|
|-------------------------------------|
|-------------------------------------|
|--0----------------------------------|
|--0----------------------------------|
|--0----------------------------------|


   S   S S S S S S S  S S S  S S S  S S
|-----------------------------------------|
|-----------------------------------------|
|-----------------------------------------|
|-10--12-0-0-0-0-0-0-14-0-0-12-0-0-14-0---|
|-----------------------------------------|
|-----------------------------------------|
|
|  S   S S S S S S S  S S S  S S S  S S
|-----------------------------------------|
|-----------------------------------------|
|-----------------------------------------|
|-14--15-0-0-0-0-0-0-17-0-0-15-0-0-17-0---|
|-----------------------------------------|
|-----------------------------------------|
|
| +W
|-----------------------------------------|
|-----------------------------------------|
|-----------------------------------------|
|-(0)-------------------------------------|
|-(0)-------------------------------------|
|-(0)-------------------------------------|


   S  S S S S S S S  S S S  S S S  S S
|--------------------------------------|
|--------------------------------------|
|--------------------------------------|
|-14-15-0-0-0-0-0-0-17-0-0-15-0-0-17-0-|
|--------------------------------------|
|--------------------------------------|
|
|  S  S S S S S S S  S S S  S S S  S S
|--------------------------------------|
|--------------------------------------|
|--------------------------------------|
|-17-19-0-0-0-0-0-0-20-0-0-19-0-0-20-0-|
|--------------------------------------|
|--------------------------------------|
|
|  W
|--------------------------------------|
|--------------------------------------|
|--------------------------------------|
|--8-----------------------------------|
|--8-----------------------------------|
|--8-----------------------------------|


   S  S S  S S S  S S  S S S  S S S  S S
|------------------------------------------|
|------------------------------------------|
|------------------------------------------|
|-19--0-0-19-0-0-20-0-19-0-0-15-0-0-14-0---|
|------------------------------------------|
|------------------------------------------|
|
|  S  S S  S S S  S S  S S S  S S S  S S
|------------------------------------------|
|------------------------------------------|
|------------------------------------------|
|-22--0-0-22-0-0-24-0-19-0-0-17-0-0-17-0---|
|------------------------------------------|
|------------------------------------------|
|
| +W
|------------------------------------------|
|------------------------------------------|
|------------------------------------------|
|-(8)--------------------------------------|
|-(8)--------------------------------------|
|-(8)--------------------------------------|


   S S S S S S S S  S S S  S S S  S S
|-------------------------------------|
|-------------------------------------|
|-------------------------------------|
|-12-0-0-0-0-0-0-0-14-0-0-12-0-0-10-0-|
|-------------------------------------|
|-------------------------------------|
|
|  S S S S S S S S  S S S  S S S  S S
|-------------------------------------|
|-------------------------------------|
|-------------------------------------|
|-12-0-0-0-0-0-0-0-17-0-0-15-0-0-14-0-|
|-------------------------------------|
|-------------------------------------|
|
|  W
|-------------------------------------|
|-------------------------------------|
|-------------------------------------|
|--0----------------------------------|
|--0----------------------------------|
|--0----------------------------------|


   S   S S S S S S S  S S S  S S S  S S
|-----------------------------------------|
|-----------------------------------------|
|-----------------------------------------|
|-10--12-0-0-0-0-0-0-14-0-0-12-0-0-14-0---|
|-----------------------------------------|
|-----------------------------------------|
|
|  S   S S S S S S S  S S S  S S S  S S
|-----------------------------------------|
|-----------------------------------------|
|-----------------------------------------|
|-14--15-0-0-0-0-0-0-17-0-0-15-0-0-17-0---|
|-----------------------------------------|
|-----------------------------------------|
|
| +W
|-----------------------------------------|
|-----------------------------------------|
|-----------------------------------------|
|-(0)-------------------------------------|
|-(0)-------------------------------------|
|-(0)-------------------------------------|


   S  S S S S S S S  S S S  S S S  S S    Q    E  E  +H
|--------------------------------------|--------------------|
|--------------------------------------|--------------------|
|--------------------------------------|--------------------|
|-14-15-0-0-0-0-0-0-17-0-0-15-0-0-17-0-|-15---17-14-(14)----|
|--------------------------------------|--------------------|
|--------------------------------------|--------------------|
|
|  S  S S S S S S S  S S S  S S S  S S    Q    E  E  +H
|--------------------------------------|--------------------|
|--------------------------------------|--------------------|
|--------------------------------------|--------------------|
|-17-19-0-0-0-0-0-0-20-0-0-19-0-0-20-0-|-19---20-17-(17)----|
|--------------------------------------|--------------------|
|--------------------------------------|--------------------|
|
|  W                                     +W
|--------------------------------------|--------------------|
|--------------------------------------|--------------------|
|--------------------------------------|--------------------|
|--3-----------------------------------|-(3)----------------|
|--3-----------------------------------|-(3)----------------|
|--3-----------------------------------|-(3)----------------|


        PM|         PM----|
                            |---3---|
  E E E E E E E E   E E E E Q   Q   Q
|-----------------|-------------------|
|-----------------|---------5---6-----|
|-7-7-7-----7-7-7-|-----------------7-|
|-----------------|-------------------|
|-5-5-5-0-0-5-5-5-|-0-0-0-0-----------|
|-------0-0-------|-0-0-0-0-----------|
|
|       PM|         PM------------|
| E E E E E E E E   E E E E E E E E
|-----------------|-------------------|
|-----------------|-------------------|
|-7-7-7-----7-7-7-|-------------------|
|-----------------|-------------------|
|-5-5-5-0-0-5-5-5-|-0-0-0-0-0-0-0-0---|
|-------0-0-------|-0-0-0-0-0-0-0-0---|


           PM|            PM----|
                                  |--3--|
   E  E  E E E  E  E  E   E E E E Q  Q  Q
|-----------------------|-----------------|
|-----------------------|---------5--6----|
|-10-10-10-----10-10-10-|---------------7-|
|-----------------------|-----------------|
|--8--8--8-0-0--8--8--8-|-0-0-0-0---------|
|----------0-0----------|-0-0-0-0---------|
|
|          PM|            PM----|
|                                 |--3--|
|  E  E  E E E  E  E  E   E E E E Q  Q  Q
|-----------------------|-----------------|
|-----------------------|-----------------|
|-10-10-10-----10-10-10-|-----------------|
|-----------------------|-----------------|
|--8--8--8-0-0--8--8--8-|-0-0-0-0-8--7--3-|
|----------0-0----------|-0-0-0-0-8--7--3-|


        PM|         PM----|                   PM|         PM----|
                            |---3---|                             |---3---|
  E E E E E E E E   E E E E Q   Q   Q   E E E E E E E E   E E E E Q    Q  Q
|-----------------|-------------------|-----------------|-------------------|
|-----------------|---------5---6-----|-----------------|---------5----6----|
|-7-7-7-----7-7-7-|-----------------7-|-----------------|-----------------7-|
|-----------------|-------------------|-----------------|-------------------|
|-5-5-5-0-0-5-5-5-|-0-0-0-0-----------|-1-1-1-1-1-1-1-1-|-1-1-1-1-----------|
|-------0-0-------|-0-0-0-0-----------|-1-1-1-1-1-1-1-1-|-1-1-1-1-----------|
|
|       PM|         PM------------|           PM|         PM----|
| E E E E E E E E   E E E E E E E E     E E E E E E E E   E E E E E Q.
|-----------------|-------------------|-----------------|-------------------|
|-----------------|-------------------|-----------------|-------------------|
|-7-7-7-----7-7-7-|-------------------|-----------------|-------------------|
|-----------------|-------------------|-----------------|-------------------|
|-5-5-5-0-0-5-5-5-|-0-0-0-0-0-0-0-0---|-1-1-1-1-1-1-1-1-|-1-1-1-1-----------|
|-------0-0-------|-0-0-0-0-0-0-0-0---|-1-1-1-1-1-1-1-1-|-1-1-1-1-8-7-------|


        PM|         PM----|
                            |---3---|
  E E E E E E E E   E E E E Q   Q   Q
|-----------------|-------------------|
|-----------------|---------5---6-----|
|-7-7-7-----7-7-7-|-----------------7-|
|-----------------|-------------------|
|-5-5-5-0-0-5-5-5-|-0-0-0-0-----------|
|-------0-0-------|-0-0-0-0-----------|
|
|       PM|         PM------------|
| E E E E E E E E   E E E E E E E E
|-----------------|-------------------|
|-----------------|-------------------|
|-7-7-7-----7-7-7-|-------------------|
|-----------------|-------------------|
|-5-5-5-0-0-5-5-5-|-0-0-0-0-0-0-0-0---|
|-------0-0-------|-0-0-0-0-0-0-0-0---|


           PM|            PM----|
                                  |--3--|
   E  E  E E E  E  E  E   E E E E Q  Q  Q
|-----------------------|-------------------|
|-----------------------|-------------------|
|-10-10-10-----10-10-10-|-------------------|
|-----------------------|-------------------|
|--8--8--8-0-0--8--8--8-|-0-0-0-0-8--7--3---|
|----------0-0----------|-0-0-0-0-8--7--3---|
|
|          PM|            PM----|
|                                 |--3--|
|  E  E  E E E  E  E  E   E E E E Q  Q  Q
|-----------------------|-------------------|
|-----------------------|-------------------|
|-10-10-10-----10-10-10-|-------------------|
|-----------------------|-------------------|
|--8--8--8-0-0--8--8--8-|-0-0-0-0-8--7--3---|
|----------0-0----------|-0-0-0-0-8--7--3---|


  W
|------|
|------|
|------|
|------|
|-7----|
|-7----|
|
| W
|------|
|------|
|------|
|------|
|-7----|
|-7----|


    S S S S S S S S S S S S S S S S   S S S S S S S S S S S S S S S S   4x
||----------------------------------|-----------------------------------||
||o---------------------------------|----------------------------------o||
||----------------------------------|-----------------------------------||
||----------------------------------|-----------------------------------||
||o---------------------------------|----------------------------------o||
||--0-0-0-1-0-0-3-0-0-0-0-1-0-0-3-0-|-0-0-0-1-0-0-3-0-0-0-0-7-0-0-8-0---||
|
|   S S S S S S S S S S S S S S S S   S S S S S S S S S S S S S S S S   4x
||----------------------------------|-----------------------------------||
||o---------------------------------|----------------------------------o||
||----------------------------------|-----------------------------------||
||----------------------------------|-----------------------------------||
||o---------------------------------|----------------------------------o||
||--0-0-0-1-0-0-3-0-0-0-0-1-0-0-3-0-|-0-0-0-1-0-0-3-0-0-0-0-7-0-0-8-0---||


    S S S E  S S S S S S E  S S S   S S S E  S S S S S S E  S S S
||--------------------------------|--------------------------------|
||o-------------------------------|--------------------------------|
||--------------------------------|--------------------------------|
||--------------------------------|--------------------------------|
||o-------5--3-5-6----------------|-------5--3-5-6-----------------|
||--0-0-0----------0-0-0-5--3-5-6-|-0-0-0----------0-0-0-3--0-1-3--|
|
|   S S S E  S S S S S S E  S S S   S S S E  S S S S S S E  S S S
||--------------------------------|--------------------------------|
||o-------------------------------|--------------------------------|
||--------------------------------|--------------------------------|
||--------------------------------|--------------------------------|
||o-------5--3-5-6----------------|-------5--3-5-6-----------------|
||--0-0-0----------0-0-0-5--3-5-6-|-0-0-0----------0-0-0-3--0-1-3--|


  S S S E  S S S S S S E  S S S   S S S E S S S   Q   Q
|-------------------------------|---------------------------||
|-------------------------------|--------------------------o||
|-------------------------------|---------------------------||
|-------------------------------|---------------------------||
|-------5--3-5-6----------------|-------5-3-5-6--11--10----o||
|-0-0-0----------0-0-0-5--3-5-6-|-0-0-0---------------------||
|
| S S S E  S S S S S S E  S S S   S S S E S S S   Q   Q
|-------------------------------|---------------------------||
|-------------------------------|--------------------------o||
|-------------------------------|---------------------------||
|-------------------------------|---------------------------||
|-------5--3-5-6----------------|-------5-3-5-6---6---5----o||
|-0-0-0----------0-0-0-5--3-5-6-|-0-0-0---------------------||


  S S S E  S E  S S S E  S E    S S S E  S E  S S S S S S S S
|-----------------------------|---------------------------------|
|-----------------------------|---------------------------------|
|-----------------------------|---------------------------------|
|-----------------------------|---------------------------------|
|-----------------------------|---------------------------------|
|-1-1-1-4--1-4--1-1-1-4--1-4--|-1-1-1-4--1-4--7-7-7-7-7-7-7-7---|
|
| S S S E  S E  S S S E  S E    S S S E  S E  S S S S S S S S
|-----------------------------|---------------------------------|
|-----------------------------|---------------------------------|
|-----------------------------|---------------------------------|
|-----------------------------|---------------------------------|
|-----------------------------|---------------------------------|
|-1-1-1-4--1-4--1-1-1-4--1-4--|-1-1-1-4--1-4--7-7-7-7-7-7-7-7---|


  S S S E  S E  S S S E  S E    S S S E  S E  S S S S S S S S
|-----------------------------|---------------------------------|
|-----------------------------|---------------------------------|
|-----------------------------|---------------------------------|
|-----------------------------|---------------------------------|
|-----------------------------|---------------------------------|
|-0-0-0-0--0-0--0-0-0-0--0-0--|-0-0-0-0--0-0--3-3-3-3-3-3-3-3---|
|
| S S S E  S E  S S S E  S E    S S S E  S E  S S S S S S S S
|-----------------------------|---------------------------------|
|-----------------------------|---------------------------------|
|-----------------------------|---------------------------------|
|-----------------------------|---------------------------------|
|-----------------------------|---------------------------------|
|-0-0-0-0--0-0--0-0-0-0--0-0--|-0-0-0-0--0-0--3-3-3-3-3-3-3-3---|


  S S S E  S E  S S S E  S E    S S S E  S E  S S S S S S S S
|-----------------------------|---------------------------------|
|-----------------------------|---------------------------------|
|-----------------------------|---------------------------------|
|-----------------------------|---------------------------------|
|-----------------------------|---------------------------------|
|-1-1-1-4--1-4--1-1-1-4--1-4--|-1-1-1-4--1-4--7-7-7-7-7-7-7-7---|
|
| S S S E  S E  S S S E  S E    S S S E  S E  S S S S S S S S
|-----------------------------|---------------------------------|
|-----------------------------|---------------------------------|
|-----------------------------|---------------------------------|
|-----------------------------|---------------------------------|
|-----------------------------|---------------------------------|
|-1-1-1-4--1-4--1-1-1-4--1-4--|-1-1-1-4--1-4--7-7-7-7-7-7-7-7---|


  S S S E  S E  S S S E  S E    W
|-----------------------------|------|
|-----------------------------|------|
|-----------------------------|------|
|-----------------------------|------|
|-----------------------------|-1----|
|-0-0-0-0--0-0--0-0-0-0--0-0--|-1----|
|
| S S S E  S E  S S S E  S E    W
|-----------------------------|------|
|-----------------------------|------|
|-----------------------------|------|
|-----------------------------|------|
|-----------------------------|-1----|
|-0-0-0-0--0-0--0-0-0-0--0-0--|-1----|


  Q   E E E  E E E   +E   E Q  +H       +Q    E E E  E E  E    +Q   Q  E  Q.
|------------------|------------------|---------------------|------------------|
|------------------|------------------|------------------10-|-(10)-------------|
|----10---9-10---9-|-(9)-10-7--(7)----|-(7)--10---9-10------|-------7--9-10----|
|-------0------0---|------------------|---------0------0----|------------------|
|------------------|------------------|---------------------|------------------|
|------------------|------------------|---------------------|------------------|
|
| W                  +W                  W                     +W
|------------------|------------------|---------------------|------------------|
|------------------|------------------|---------------------|------------------|
|------------------|------------------|---------------------|------------------|
|------------------|------------------|---------------------|------------------|
|-0----------------|-(0)--------------|--8------------------|--(8)-------------|
|-0----------------|-(0)--------------|--8------------------|--(8)-------------|


   +Q    E E E  E E E   +E   E Q  +Q.   S S
|---------------------|---------------------|
|---------------------|---------------------|
|-(10)--10---9-10---9-|-(9)-10-7--(7)---6-7-|
|----------0------0---|---------------------|
|---------------------|---------------------|
|---------------------|---------------------|
|
|   W                   +W
|---------------------|---------------------|
|---------------------|---------------------|
|---------------------|---------------------|
|---------------------|---------------------|
|---0-----------------|-(0)-----------------|
|---0-----------------|-(0)-----------------|


                       |--3---|
  Q.   S S Q.   S S    Q  Q   Q   H
|-------------------|-----------------|
|-------------------|-----------------|
|-6----6-7-9----7-9-|-10--9--10--12---|
|-------------------|-----------------|
|-------------------|-----------------|
|-------------------|-----------------|
|
| W                    W
|-------------------|-----------------|
|-------------------|-----------------|
|-------------------|-----------------|
|-------------------|-----------------|
|-1-----------------|-10--------------|
|-1-----------------|-10--------------|


   +Q    E E  E  E E  E    +E   E  Q    +H
|-----------------------|-------------------------|
|-----------------------|-------------------------|
|-(12)--10----9-10----9-|--(9)-10--7----(7)-------|
|----------0-------0----|-------------------------|
|-----------------------|-------------------------|
|-----------------------|-------------------------|
|
|   Q    E E  E  E E  E    +E   E  Q    +H
|-----------------------|-------------------------|
|-----------------------|-------------------------|
|-------14---12-14---12-|-(12)-14-10---(10)-------|
|----------0-------0----|-------------------------|
|-----------------------|-------------------------|
|-----------------------|-------------------------|
|
|        PM-------------------------------------|
|   Q    E E  E  E E  E     E   E  E E   E  E E E
|-----------------------|-------------------------|
|-----------------------|-------------------------|
|-----------------------|-------------------------|
|-----------------------|-------------------------|
|---0----0-0--0--0-0--0-|---0---0--0-0---0--0-0-0-|
|---0----0-0--0--0-0--0-|---0---0--0-0---0--0-0-0-|


   +Q    E E  E  E E  E    +Q     Q    E  Q.
|-----------------------|--------------------------|
|--------------------10-|-(10)---------------------|
|--(7)--10----9-10------|---------7----9-10--------|
|----------0-------0----|--------------------------|
|-----------------------|--------------------------|
|-----------------------|--------------------------|
|
|  +Q    E E  E  E E  E    +Q     Q    E  Q.
|-----------------------|--------------------------|
|--------------------13-|-(13)---------------------|
|-(10)--14---12-14------|--------10---12-14--------|
|----------0-------0----|--------------------------|
|-----------------------|--------------------------|
|-----------------------|--------------------------|
|
|        PM-------------------------|
|   Q    E E  E  E E  E     E  E  E E  E  E   E  E
|-----------------------|--------------------------|
|-----------------------|--------------------------|
|-----------------------|--------------------------|
|-----------------------|--------------------------|
|---8----8-8--8--8-8--8-|---8--8--8-8-10-10--10-10-|
|---8----8-8--8--8-8--8-|---8--8--8-8-10-10--10-10-|


   +Q    E E  E  E E  E    +E   E  Q    +Q.      S  S
|-----------------------|-----------------------------|
|-----------------------|-----------------------------|
|-(10)--10----9-10----9-|--(9)-10--7----(7)------6--7-|
|----------0-------0----|-----------------------------|
|-----------------------|-----------------------------|
|-----------------------|-----------------------------|
|
|  +Q    E E  E  E E  E    +E   E  Q    +Q.      S  S
|-----------------------|-----------------------------|
|-----------------------|-----------------------------|
|-(14)--14---12-14---12-|-(12)-14-10---(10)-----12-14-|
|----------0-------0----|-----------------------------|
|-----------------------|-----------------------------|
|-----------------------|-----------------------------|
|
|   Q    E E  E  E E  E     E   E  E E   E  E E  E
|-----------------------|-----------------------------|
|-----------------------|-----------------------------|
|-----------------------|-----------------------------|
|-----------------------|-----------------------------|
|---0----0-0--0--0-0--0-|---0---0--0-0---0--0-0--0----|
|---0----0-0--0--0-0--0-|---0---0--0-0---0--0-0--0----|


                                |----3----|
   Q.     S  S  Q.      S  S    Q    Q    Q   H
|----------------------------|---------------------|
|----------------------------|---------------------|
|--6------6--7--9-------7--9-|-10----9---10--12----|
|----------------------------|---------------------|
|----------------------------|---------------------|
|----------------------------|---------------------|
|
|                               |----3----|
|  Q.     S  S  Q.      S  S    Q    Q    Q   H
|----------------------------|---------------------|
|----------------------------|---------------13----|
|-12-----10-12-14------10-12-|-14---12---14--------|
|----------------------------|---------------------|
|----------------------------|---------------------|
|----------------------------|---------------------|
|
|  Q   E  E     E  E E  E       E E +H.
|----------------------------|---------------------|
|----------------------------|---------------------|
|----------------------------|---------------------|
|----------------------------|---------------------|
|--1---1--1-----1--1-1--1----|--1-3-(3)------------|
|--1---1--1-----1--1-1--1----|--1-3-(3)------------|


   |---------3---------|     |---------3---------|
   Q   Q   Q   Q   Q   Q     Q   Q   Q   Q   Q   Q
|-----12------13------12--|-15------15--17------17----|
|-------------------------|-----13----------15--------|
|-14------14------14------|---------------------------|
|-------------------------|---------------------------|
|-------------------------|---------------------------|
|-------------------------|---------------------------|
|
|  |---3---|                 |---------3---------|
|  Q   Q   Q   Q   Q         Q   Q   Q   Q   Q   Q
|-------------------------|---------------------------|
|-------------------------|---------------------------|
|-------------------------|---------------------------|
|-------------------------|---------------------------|
|--0---0---0---0----------|--0---0---0---3---0---3----|
|--0---0---0---0----------|--0---0---0---3---0---3----|


   |---------3---------|
   Q   Q   Q   Q   Q   Q     W
|-18--17--15--13--15--13--|-13b15-------------------|
|-------------------------|-------------------------|
|-------------------------|-------------------------|
|-------------------------|-------------------------|
|-------------------------|-------------------------|
|-------------------------|-------------------------|
|
|  |---------3---------|     |--------3--------|
|  Q   Q   Q   Q   Q   Q     Q     Q  Q  Q  Q  Q
|-------------------------|-------------------------|
|-------------------------|-------------------------|
|-------------------------|-------------------------|
|-------------------------|-------------------------|
|--0---0---0---0---0---0--|--8-----7--3--1--3--1----|
|--0---0---0---0---0---0--|--8-----7--3--1--3--1----|


   S  S  S  S  S  S  S  S  S  S  S  S  S  S  S  S
|-12-13-12-13-15-13-12-13-12-13-12-13-15-13-12-13-|
|-------------------------------------------------|
|-------------------------------------------------|
|-------------------------------------------------|
|-------------------------------------------------|
|-------------------------------------------------|
|
|  |--------3--------|
|  Q        Q        Q     Q           Q
|-------------------------------------------------|
|-------------------------------------------------|
|-------------------------------------------------|
|-------------------------------------------------|
|--0--------0--------0-----0----------------------|
|--0--------0--------0-----0----------------------|


   S  S  S  S  S  S  S  S  S  S  S  S  S  S  +E
|-17-15-13-15-13-12-13-12----------------------------|
|-------------------------15-17-15-13----------------|
|-------------------------------------12-14-(14)-----|
|----------------------------------------------------|
|----------------------------------------------------|
|----------------------------------------------------|
|
|  |----------------------3----------------------|
|  Q        Q        Q        Q        Q         Q
|----------------------------------------------------|
|----------------------------------------------------|
|----------------------------------------------------|
|----------------------------------------------------|
|--0--------0--------0--------3--------0---------3---|
|--0--------0--------0--------3--------0---------3---|


                |3-|        |------3------|
   Q.           E  E        Q    Q        Q         W
|------------------------------------------------|-------------------------|
|--------------16----------16------------16------|-------------------------|
|-15b15.5---------15b15.5-------15b15.5----------|-15----------------------|
|------------------------------------------------|-------------------------|
|------------------------------------------------|-------------------------|
|------------------------------------------------|-------------------------|
|
|  |--------------------3---------------------|     |---------3---------|
|  Q        Q      Q          Q           Q   Q     Q   Q   Q   Q   Q   Q
|------------------------------------------------|-------------------------|
|------------------------------------------------|-------------------------|
|------------------------------------------------|-------------------------|
|------------------------------------------------|-------------------------|
|--1--------1------1----------1-----------1---1--|--4---4---4---4---7---7--|
|--1--------1------1----------1-----------1---1--|--4---4---4---4---7---7--|


   S  S  S  S  S  S  S  S  S  S  S  S  S  S  S  S
|-------------------------------------------------|
|-------------------------------------------------|
|----------------------------------------12-14-15-|
|-------------------------12-14-15-14-15----------|
|----------10-12-13-12-13-------------------------|
|-12-14-15----------------------------------------|
|
|  |--------3--------|
|  Q        Q        Q        Q     Q
|-------------------------------------------------|
|-------------------------------------------------|
|-------------------------------------------------|
|-------------------------------------------------|
|--0--------0--------0--------0-------------------|
|--0--------0--------0--------0-------------------|


   |-----------3------------|
   Q    Q    Q    Q    Q    Q
|-------------------------------|
|-13---15-----------------------|
|-----------15---14---15---14---|
|-------------------------------|
|-------------------------------|
|-------------------------------|
|
|  |-----------3------------|
|  Q    Q    Q    Q    Q    Q
|-------------------------------|
|-------------------------------|
|-------------------------------|
|-------------------------------|
|--0----0----0----3----0----3---|
|--0----0----0----3----0----3---|


   |-----------3------------|
   Q    Q    Q    Q    Q    Q     H.                +E     E
|------------------------------|------------------------------|
|-18-----------------------18--|-17----------------(17)---18--|
|------15---14---15---14-------|------------------------------|
|------------------------------|------------------------------|
|------------------------------|------------------------------|
|------------------------------|------------------------------|
|
|  |-----------3------------|     |-----------3------------|
|  Q    Q    Q    Q    Q    Q     Q    Q   Q   Q     Q     Q
|------------------------------|------------------------------|
|------------------------------|------------------------------|
|------------------------------|------------------------------|
|------------------------------|------------------------------|
|--0----0----0----0----0----0--|--8----7---3---1-----3-----1--|
|--0----0----0----0----0----0--|--8----7---3---1-----3-----1--|


   |--3--|  |--3--|  |--3--|
   E  E  E  E  E  E  E  E  E  E  E
|-17------------------------------------|
|----18-15-13---------------------------|
|-------------15-14-15-14-12-13-14------|
|---------------------------------------|
|---------------------------------------|
|---------------------------------------|
|
|  |--------3--------|
|  Q        Q        Q        Q    Q
|---------------------------------------|
|---------------------------------------|
|---------------------------------------|
|---------------------------------------|
|--0--------0--------0--------0---------|
|--0--------0--------0--------0---------|


   |--------3--------|
   E.  S  E.  S  E.  S  H
|----------------------------------------|
|----------------------------------------|
|-17--17-16--16-13--13-------------------|
|----------------------15----------------|
|----------------------------------------|
|----------------------------------------|
|
|  |---------------3----------------|
|  Q          Q         Q   Q   Q   Q
|----------------------------------------|
|----------------------------------------|
|----------------------------------------|
|----------------------------------------|
|--0----------0---------0---3---0---3----|
|--0----------0---------0---3---0---3----|


   |---3---|   |---3---|
   Q   Q   Q   Q   Q   Q
|-22--17--------------------|
|---------18----------------|
|-------------19--14--------|
|---------------------15----|
|---------------------------|
|---------------------------|
|
|  W
|---------------------------|
|---------------------------|
|---------------------------|
|---------------------------|
|--1------------------------|
|--1------------------------|


   W                +W                 +W                 +W
|----------------|------------------|------------------|------------------|
|----------------|------------------|------------------|------------------|
|----------------|------------------|------------------|------------------|
|-12-------------|-(12)-------------|-(12)-------------|-(12)-------------|
|----------------|------------------|------------------|------------------|
|----------------|------------------|------------------|------------------|
|
|  W                +W                 +W                 +W
|----------------|------------------|------------------|------------------|
|----------------|------------------|------------------|------------------|
|----------------|------------------|------------------|------------------|
|----------------|------------------|------------------|------------------|
|--0-------------|--(0)-------------|--(0)-------------|--(0)-------------|
|--0-------------|--(0)-------------|--(0)-------------|--(0)-------------|
|
|  Q  E E +H         Q   E E +H         Q   E E +H         Q   E E +H
|----------------|------------------|------------------|------------------|
|--5--6----------|---5---6----------|---5---6----------|---5---6----------|
|-------7-(7)----|---------7-(7)----|---------7-(7)----|---------7-(7)----|
|----------------|------------------|------------------|------------------|
|----------------|------------------|------------------|------------------|
|----------------|------------------|------------------|------------------|


        PM|           PM--------------|
  E E E E  E  E E E   E E E E  E  E E E
|-------------------|-------------------|
|-------------------|-------------------|
|-7-7-7-------7-7-7-|-------------------|
|-------------------|-------------------|
|-5-5-5-0--0--5-5-5-|-0-0-0-0--0--0-0-0-|
|-------0--0--------|-0-0-0-0--0--0-0-0-|
|
| Q   E E +H          Q   E E +H
|-------------------|-------------------|
|-5---6-------------|-5---6-------------|
|-------7-(7)-------|-------7-(7)-------|
|-------------------|-------------------|
|-------------------|-------------------|
|-------------------|-------------------|


           PM|              PM----|
                                     |--3---|
   E  E  E E  E   E  E  E   E E E E  Q   Q  Q
|-------------------------|--------------------|
|-------------------------|--------------------|
|-10-10-10-------10-10-10-|--------------------|
|-------------------------|--------------------|
|--8--8--8-0--0---8--8--8-|-0-0-0-0--8---7--3--|
|----------0--0-----------|-0-0-0-0--8---7--3--|
|
|  Q     E E +H             Q   E E +H
|-------------------------|--------------------|
|--5-----6----------------|-5---6--------------|
|----------7-(7)----------|-------7-(7)--------|
|-------------------------|--------------------|
|-------------------------|--------------------|
|-------------------------|--------------------|


  W
|------|
|------|
|------|
|------|
|-7----|
|-7----|
|
|------|
|------|
|------|
|------|
|------|
|------|


     S S S S S S S S  S S S  S S S  S S
||--------------------------------------|
||o-------------------------------------|
||--------------------------------------|
||--12-0-0-0-0-0-0-0-14-0-0-12-0-0-10-0-|
||o-------------------------------------|
||--------------------------------------|
|
|    S S S S S S S S  S S S  S S S  S S
||--------------------------------------|
||o-------------------------------------|
||--------------------------------------|
||--12-0-0-0-0-0-0-0-14-0-0-12-0-0-10-0-|
||o-------------------------------------|
||--------------------------------------|


   S  S S S S S S S  S S S  S S S  S S
|---------------------------------------|
|---------------------------------------|
|---------------------------------------|
|-10-12-0-0-0-0-0-0-14-0-0-12-0-0-14-0--|
|---------------------------------------|
|---------------------------------------|
|
|  S  S S S S S S S  S S S  S S S  S S
|---------------------------------------|
|---------------------------------------|
|---------------------------------------|
|-10-12-0-0-0-0-0-0-14-0-0-12-0-0-14-0--|
|---------------------------------------|
|---------------------------------------|


   S  S S S S S S S  S S S  S S S  S S
|--------------------------------------|
|--------------------------------------|
|--------------------------------------|
|-14-15-0-0-0-0-0-0-17-0-0-15-0-0-17-0-|
|--------------------------------------|
|--------------------------------------|
|
|  S  S S S S S S S  S S S  S S S  S S
|--------------------------------------|
|--------------------------------------|
|--------------------------------------|
|-14-15-0-0-0-0-0-0-17-0-0-15-0-0-17-0-|
|--------------------------------------|
|--------------------------------------|


  1.
   S S S  S S S  S S  S S S  S S S  S S
|------------------------------------------||
|-----------------------------------------o||
|------------------------------------------||
|-19-0-0-19-0-0-20-0-19-0-0-15-0-0-14-0----||
|-----------------------------------------o||
|------------------------------------------||
|
|  S S S  S S S  S S  S S S  S S S  S S
|------------------------------------------||
|-----------------------------------------o||
|------------------------------------------||
|-19-0-0-19-0-0-20-0-19-0-0-15-0-0-14-0----||
|-----------------------------------------o||
|------------------------------------------||


  2.
   Q   E  E  +H
|-------------------|
|-------------------|
|-------------------|
|-15--17-14-(14)----|
|-------------------|
|-------------------|
|
|  Q   E  E  +H
|-------------------|
|-------------------|
|-------------------|
|-19--20-17-(17)----|
|-------------------|
|-------------------|


  Q   E E E  E E E   +E   E Q  +H       +Q    E E E  E E  E    +Q   Q  E  Q.
|------------------|------------------|---------------------|------------------|
|------------------|------------------|------------------10-|-(10)-------------|
|----10---9-10---9-|-(9)-10-7--(7)----|-(7)--10---9-10------|-------7--9-10----|
|-------0------0---|------------------|---------0------0----|------------------|
|------------------|------------------|---------------------|------------------|
|------------------|------------------|---------------------|------------------|
|
| W                  +W                  W                     +W
|------------------|------------------|---------------------|------------------|
|------------------|------------------|---------------------|------------------|
|------------------|------------------|---------------------|------------------|
|------------------|------------------|---------------------|------------------|
|-0----------------|-(0)--------------|--8------------------|--(8)-------------|
|-0----------------|-(0)--------------|--8------------------|--(8)-------------|


   Q   E E E  E E E   +E   E Q  +Q.   S S
|-------------------|---------------------|
|-------------------|---------------------|
|-10--10---9-10---9-|-(9)-10-7--(7)---6-7-|
|--------0------0---|---------------------|
|-------------------|---------------------|
|-------------------|---------------------|
|
|  W                  +W
|-------------------|---------------------|
|-------------------|---------------------|
|-------------------|---------------------|
|-------------------|---------------------|
|--0----------------|-(0)-----------------|
|--0----------------|-(0)-----------------|


                       |--3---|
  Q.   S S Q.   S S    Q  Q   Q   H
|-------------------|-----------------|
|-------------------|-----------------|
|-6----6-7-9----7-9-|-10--9--10--12---|
|-------------------|-----------------|
|-------------------|-----------------|
|-------------------|-----------------|
|
| W                    W
|-------------------|-----------------|
|-------------------|-----------------|
|-------------------|-----------------|
|-------------------|-----------------|
|-1-----------------|-10--------------|
|-1-----------------|-10--------------|


   Q   E E  E  E E  E    +E   E  Q    +H
|---------------------|-------------------------|
|---------------------|-------------------------|
|-12--10----9-10----9-|--(9)-10--7----(7)-------|
|--------0-------0----|-------------------------|
|---------------------|-------------------------|
|---------------------|-------------------------|
|
|  Q   E E  E  E E  E    +E   E  Q    +H
|---------------------|-------------------------|
|---------------------|-------------------------|
|-----14---12-14---12-|-(12)-14-10---(10)-------|
|--------0-------0----|-------------------------|
|---------------------|-------------------------|
|---------------------|-------------------------|
|
|      PM-------------------------------------|
|  Q   E E  E  E E  E     E   E  E E   E  E E E
|---------------------|-------------------------|
|---------------------|-------------------------|
|---------------------|-------------------------|
|---------------------|-------------------------|
|--0---0-0--0--0-0--0-|---0---0--0-0---0--0-0-0-|
|--0---0-0--0--0-0--0-|---0---0--0-0---0--0-0-0-|


   +Q    E E  E  E E  E    +Q     Q    E  Q.
|-----------------------|--------------------------|
|--------------------10-|-(10)---------------------|
|--(7)--10----9-10------|---------7----9-10--------|
|----------0-------0----|--------------------------|
|-----------------------|--------------------------|
|-----------------------|--------------------------|
|
|  +Q    E E  E  E E  E    +Q     Q    E  Q.
|-----------------------|--------------------------|
|--------------------13-|-(13)---------------------|
|-(10)--14---12-14------|--------10---12-14--------|
|----------0-------0----|--------------------------|
|-----------------------|--------------------------|
|-----------------------|--------------------------|
|
|        PM-------------------------|
|   Q    E E  E  E E  E     E  E  E E  E  E   E  E
|-----------------------|--------------------------|
|-----------------------|--------------------------|
|-----------------------|--------------------------|
|-----------------------|--------------------------|
|---8----8-8--8--8-8--8-|---8--8--8-8-10-10--10-10-|
|---8----8-8--8--8-8--8-|---8--8--8-8-10-10--10-10-|


   Q   E E  E  E E  E    +E   E  Q    +Q.      S  S
|---------------------|-----------------------------|
|---------------------|-----------------------------|
|-10--10----9-10----9-|--(9)-10--7----(7)------6--7-|
|--------0-------0----|-----------------------------|
|---------------------|-----------------------------|
|---------------------|-----------------------------|
|
|  Q   E E  E  E E  E    +E   E  Q    +Q.      S  S
|---------------------|-----------------------------|
|---------------------|-----------------------------|
|-14--14---12-14---12-|-(12)-14-10---(10)-----12-14-|
|--------0-------0----|-----------------------------|
|---------------------|-----------------------------|
|---------------------|-----------------------------|
|
|  Q   E E  E  E E  E     E   E  E E   E  E E  E
|---------------------|-----------------------------|
|---------------------|-----------------------------|
|---------------------|-----------------------------|
|---------------------|-----------------------------|
|--0---0-0--0--0-0--0-|---0---0--0-0---0--0-0--0----|
|--0---0-0--0--0-0--0-|---0---0--0-0---0--0-0--0----|


                                |----3----|
   Q.     S  S  Q.      S  S    Q    Q    Q   H
|----------------------------|---------------------|
|----------------------------|---------------------|
|--6------6--7--9-------7--9-|-10----9---10--12----|
|----------------------------|---------------------|
|----------------------------|---------------------|
|----------------------------|---------------------|
|
|                               |----3----|
|  Q.     S  S  Q.      S  S    Q    Q    Q   H
|----------------------------|---------------------|
|----------------------------|---------------13----|
|-12-----10-12-14------10-12-|-14---12---14--------|
|----------------------------|---------------------|
|----------------------------|---------------------|
|----------------------------|---------------------|
|
|  Q   E  E     E  E E  E       E E +H.
|----------------------------|---------------------|
|----------------------------|---------------------|
|----------------------------|---------------------|
|----------------------------|---------------------|
|--1---1--1-----1--1-1--1----|--1-3-(3)------------|
|--1---1--1-----1--1-1--1----|--1-3-(3)------------|


          PM|         PM----|
                              |---3---|
    E E E E E E E E   E E E E Q   Q   Q
||------------------|-------------------|
||o-----------------|---------5---6-----|
||--7-7-7-----7-7-7-|-----------------7-|
||------------------|-------------------|
||o-5-5-5-0-0-5-5-5-|-0-0-0-0-----------|
||--------0-0-------|-0-0-0-0-----------|
|
|         PM|         PM------------|
|   E E E E E E E E   E E E E E E E E
||------------------|-------------------|
||o-----------------|-------------------|
||--7-7-7-----7-7-7-|-------------------|
||------------------|-------------------|
||o-5-5-5-0-0-5-5-5-|-0-0-0-0-0-0-0-0---|
||--------0-0-------|-0-0-0-0-0-0-0-0---|


           PM|            PM----|
                                  |--3--|
   E  E  E E E  E  E  E   E E E E Q  Q  Q
|-----------------------|----------------|
|-----------------------|---------5--6---|
|-10-10-10-----10-10-10-|---------------7|
|-----------------------|----------------|
|--8--8--8-0-0--8--8--8-|-0-0-0-0--------|
|----------0-0----------|-0-0-0-0--------|
|
|          PM|            PM----|
|                                
Добавлено: 25.06.2012
Другие материалы по этой песне:
  • Аккорды и текст

Страница создана 18.05.2012
http://primanota.ru/himsa/pestilence-chords.htm
Привет, Гость.
Предлагаем пройти революционный курс по гитаре.
Подарок от PrimaNota.Ru, забирай!