PrimaNota.ru - самый крупный в мире бесплатный архив песенных текстов, аккордов, табулатур и нот


Himsa - Kiss Or Kill - текст песни, таба, видео

Регистрация Запомнить меня
Войти через:  Facebook Google Twitter Vk Yandex Mail.ru

Himsa - Kiss Or Kill - текст песни, таба, видео

Печатать
Просмотров: 148
www.himsa.org
victor's tab 
himsa- Kiss Or Kill
Tuning- (C G C F A D)

 1st riff
-----------------------------------------------------------------------------------
-12-0-0-12-0-0-12-0-11-0-0-11-0-0-12-0-8-0-0-8-0-0-12-0-7-0-0-7-0-0-7-play--three--
-------------------------------------------------------------------------times-----
-----------------------------------------------------------------------------------
-----------------------------------------------------------------------------------
-----------------------------------------------------------------------------------
on the fourth time the second guitarist comes in with the second riff \/

 while second guitar plays this
-----------------------------------------------------------------------------------
-slide-----------------------------------------------------------------------------
--\/-------------------------------------------------------------------------------
-****2~~~~~~~~~~~~~~~~~~~~~~~~~-------2--------------------------------------------
-****2~~~~~~~~~~~~~~~~~~~~~~~~~-hold--2--------------------------------------------
-****2~~~~~~~~~~~~~~~~~~~~~~~~~-------2--------------------------------------------

 2nd riff
-15-x-x-15-x-x-15-x-14-x-x-14-x-x-15-x-12-x-x-12-x-x-15-x-11-x-x-11-x-x-12---------
-----------------------------------------------------------------------------------
-----------------------------------------------------------------------------------
-----------------------------------------------------------------------------------
-----------------------------------------------------------------------------------
-----------------------------------------------------------------------------------
 while second guitar plays this
-----------------------------------------------------------------------------------
-slide-----------------------------------------------------------------------------
--\/-------------------------------------------------------------------------------
-****2~~~~~~~~~~~~~~~~~~~~~~~~~-------2--------------------------------------------
-****2~~~~~~~~~~~~~~~~~~~~~~~~~-hold--2--------------------------------------------
-****2~~~~~~~~~~~~~~~~~~~~~~~~~-------2--------------------------------------------

                                                                   end intro thing
                                                                           then
--------------------------------------after-this-it-goes-to-a-part-i-cant----------
-slide--------------------------------figure-out--i-immprovise-(sounds-good)-lol---
--\/----------------------------------|-----------------------------------------|--
-****2-------hold-for-a-while--14\0------improvise-with-these-power------<9>-------
-****2-------------------------14\0-----\/-chords-\/-and-these-hamonics--<9>-------
-****2-------------------------14\0-----2-3-4-5-7-9--------------------------------

then
-------------------------second-guitarist-comes-in-with-1st-riff-at-the-same-time--
----------------------------|-------------------------|---------------------------|
-------------------------------------------------then-come-in-with-1st-&-2nd-riff--
-9--8--5--4----9--8--5--4----9--8--5--4----9--8--5--4----9--8--5--4----9--8--5--4--
-9--8--5--4----9--8--5--4----9--8--5--4----9--8--5--4----9--8--5--4----9--8--5--4--
-9--8--5--4----9--8--5--4----9--8--5--4----9--8--5--4----9--8--5--4----9--8--5--4--


-----------------------------------------------------------------------------------
-----------------------------------------------------------------------------------
-----------------------------------------------------------------------------------
---8--2-2-2-2-2-2--6--2-2-2-2-2-2---5-5-6-6-7-7-8-8-<9>----------------------------
---8--2-2-2-2-2-2--6--2-2-2-2-2-2---5-5-6-6-7-7-8-8-<9>----------------------------
---8--2-2-2-2-2-2--6--2-2-2-2-2-2---5-5-6-6-7-7-8-8-<9>----------------------------

-----------------------------------------------------------------------------------
-----------------------------------------------------------------------------------
-----------------------------------------------------------------------------------
---8--2-2-2-2-2-2--6--2-2-2-2-2-2-----------2-2-2h3p2------------------------------
---8--2-2-2-2-2-2--6--2-2-2-2-2-2-------2-2----------------------------------------
---8--2-2-2-2-2-2--6--2-2-2-2-2-2---2-2--------------------------------------------

-----------------------------------------------------------------------------------
-----------------------------------------------------------------------------------
-----------------------------------------------------------------------------------
---8--2-2-2-2-2-2--6--2-2-2-2-2-2---5-5-6-6-7-7-8-8-<9>----------------------------
---8--2-2-2-2-2-2--6--2-2-2-2-2-2---5-5-6-6-7-7-8-8-<9>----------------------------
---8--2-2-2-2-2-2--6--2-2-2-2-2-2---5-5-6-6-7-7-8-8-<9>----------------------------

-----------------------------------------------------------------------------------
-----------------------------------------------------------------------------------
-----------------------------------------------------------------------------------
---8--2-2-2-2-2-2--6--2-2-2-2-2-2-----------2-2-2h3p2------------------------------
---8--2-2-2-2-2-2--6--2-2-2-2-2-2-------2-2----------------------------------------
---8--2-2-2-2-2-2--6--2-2-2-2-2-2---2-2--------------------------------------------


 then
-----------------------------------------------------------------------------------
-----------------------------------------------------------------------------------
-----------------------------------------------------------------------------------
----9--8--5--4----9--8--5--4-------------------------------------------------------
----9--8--5--4----9--8--5--4-------------------------------------------------------
----9--8--5--4----9--8--5--4-------------------------------------------------------

 second guitarist comes in with this
-----------------------------------------------------------------------------------
-----------------------------------------------------------------------------------
------------------4--7--9--11~-----------------------------------------------------
------------------x--x--x--x~~-----------------------------------------------------
------------------2--5--7--9~~-----------------------------------------------------
-----------------------------------------------------------------------------------

-----------------------------------------------------------------------------------
-----------------------------------------------------------------------------------
---------------------------------------------------------4-------------------------
--8-10--5-3--8-10--5-3--6-3------8-10--5-3--8-10--3-6--5-x-------------------------
--8-10--5-3--8-10--5-3--6-3------8-10--5-3--8-10--3-6--5-2-------------------------
--8-10--5-3--8-10--5-3--6-3------8-10--5-3--8-10--3-6--5---------------------------

-----------------------------------------------------------------------------------
-----------------------------------------------------------------------------------
---------------------------------------------------------4-------------------------
--8-10--5-3--8-10--5-3--3-6------8-10--5-3--8-10--3-6--5-x-------------------------
--8-10--5-3--8-10--5-3--3-6------8-10--5-3--8-10--3-6--5-2-------------------------
--8-10--5-3--8-10--5-3--3-6------8-10--5-3--8-10--3-6--5---------------------------

-----------------------------------------------------------------------------------
-----------------------------------------------------------------------------------
---------------------------------------------------------4-------------------------
--8-10--5-3--8-10--5-3--3-6------8-10--5-3--8-10--3-6--5-x-------------------------
--8-10--5-3--8-10--5-3--3-6------8-10--5-3--8-10--3-6--5-2-------------------------
--8-10--5-3--8-10--5-3--3-6------8-10--5-3--8-10--3-6--5---------------------------

-----------------------------------------------------------------------------------
-----------------------------------------------------------------------------------
---------------------------------------------------------4-------------------------
--8-10--5-3--8-10--5-3--3-6------8-10--5-3--8-10--3-6--5-x-------------------------
--8-10--5-3--8-10--5-3--3-6------8-10--5-3--8-10--3-6--5-2-------------------------
--8-10--5-3--8-10--5-3--3-6------8-10--5-3--8-10--3-6--5---------------------------

 1st riff
-----------------------------------------------------------------------------------
-12-0-0-12-0-0-12-0-11-0-0-11-0-0-12-0-8-0-0-8-0-0-12-0-7-0-0-7-0-0-7-play--three--
-------------------------------------------------------------------------times-----
-----------------------------------------------------------------------------------
-----------------------------------------------------------------------------------
-----------------------------------------------------------------------------------
on the 3rd this time the second guitarist comes in with this  \/

 2nd riff
-15-x-x-15-x-x-15-x-14-x-x-14-x-x-15-x-12-x-x-12-x-x-15-x-11-x-x-11-x-x-12---------
-----------------------------------------------------------------------------------
-----------------------------------------------------------------------------------
-----------------------------------------------------------------------------------
-----------------------------------------------------------------------------------
-----------------------------------------------------------------------------------

 its hope less............ SO FUCKING HOPELESS!!!!
-----------------------------------------------------------------------------------
-----------------------------------------------------------------------------------
-----------------------------------------------------------------------------------
--6-8--2-2-2-2-2-2--6-2--2-2-2-2-2-2--8-6-2-2-2-2-2-2----------2-2-2-2h3p2---------
--6-8--2-2-2-2-2-2--6-2--2-2-2-2-2-2--8-6-2-2-2-2-2-2------2-2---------------------
--6-8--2-2-2-2-2-2--6-2--2-2-2-2-2-2--8-6-2-2-2-2-2-2--2-2-------------------------

-----------------------------------------------------------------------------------
-----------------------------------------------------------------------------------
-----------------------------------------------------------------------------------
--6-8--2-2-2-2-2-2--6-2--2-2-2-2-2-2--8-6-2-2-2-2-2-2----------2-2-2-2h3p2---------
--6-8--2-2-2-2-2-2--6-2--2-2-2-2-2-2--8-6-2-2-2-2-2-2------2-2---------------------
--6-8--2-2-2-2-2-2--6-2--2-2-2-2-2-2--8-6-2-2-2-2-2-2--2-2-------------------------

-----------------------------------------------------------------------------------
-----------------------------------------------------------------------------------
-----------------------------------------------------------------------------------
--6-8--2-2-2-2-2-2--6-2--2-2-2-2-2-2--8-6-2-2-2-2-2-2----------2-2-2-2h3p2---------
--6-8--2-2-2-2-2-2--6-2--2-2-2-2-2-2--8-6-2-2-2-2-2-2------2-2---------------------
--6-8--2-2-2-2-2-2--6-2--2-2-2-2-2-2--8-6-2-2-2-2-2-2--2-2-------------------------

-----------------------------------------------------------------------------------
-----------------------------------------------------------------------------------
-----------------------------------------------------------------------------------
--6-8--2-2-2-2-2-2--6-2--2-2-2-2-2-2--8-6-2-2-2-2-2-2----------2-2-2-2h3p2---------
--6-8--2-2-2-2-2-2--6-2--2-2-2-2-2-2--8-6-2-2-2-2-2-2------2-2---------------------
--6-8--2-2-2-2-2-2--6-2--2-2-2-2-2-2--8-6-2-2-2-2-2-2--2-2-------------------------


tapping and this together
-----------------------------------------------------------------------------------
-----------------------------------------------------------------------------------
-----------------------------------------------------------------------------------
--6-8--2-2-2-2-2-2--6-2--2-2-2-2-2-2--8-6-2-2-2-2-2-2----------2-2-2-2h3p2---------
--6-8--2-2-2-2-2-2--6-2--2-2-2-2-2-2--8-6-2-2-2-2-2-2------2-2---------------------
--6-8--2-2-2-2-2-2--6-2--2-2-2-2-2-2--8-6-2-2-2-2-2-2--2-2-------------------------

hard cause i think he taps 2 strings at once
-h15p10h11--h15p10h11--h15p10h11--h15p10h11--h14p9h12--h14p9h12--h14p9h12--h14p9h12
--h14p8h11---h14p8h11---h14p8h11---h14p8h11--h13p8h11--h13p8h11--h13p8h11--h13p8h11
-----------------------------------------------------------------------------------
-----------------------------------------------------------------------------------
-----------------------------------------------------------------------------------
-----------------------------------------------------------------------------------

-----------------------------------------------------------------------------------
-----------------------------------------------------------------------------------
-----------------------------------------------------------------------------------
--6-8--2-2-2-2-2-2--6-2--2-2-2-2-2-2--8-6-2-2-2-2-2-2----------2-2-2-2h3p2---------
--6-8--2-2-2-2-2-2--6-2--2-2-2-2-2-2--8-6-2-2-2-2-2-2------2-2---------------------
--6-8--2-2-2-2-2-2--6-2--2-2-2-2-2-2--8-6-2-2-2-2-2-2--2-2-------------------------

hard cause i think he taps 2 strings at once
-h15p10h11--h15p10h11--h15p10h11--h15p10h11--h14p9h12--h14p9h12--h14p9h12--h14p9h12
--h14p8h11---h14p8h11---h14p8h11---h14p8h11--h13p8h11--h13p8h11--h13p8h11--h13p8h11
-----------------------------------------------------------------------------------
-----------------------------------------------------------------------------------
-----------------------------------------------------------------------------------
-----------------------------------------------------------------------------------

-----------------------------------------------------------------------------------
-----------------------------------------------------------------------------------
-----------------------------------------------------------------------------------
--6-8--2-2-2-2-2-2--6-2--2-2-2-2-2-2--8-6-2-2-2-2-2-2----------2-2-2-2h3p2---------
--6-8--2-2-2-2-2-2--6-2--2-2-2-2-2-2--8-6-2-2-2-2-2-2------2-2---------------------
--6-8--2-2-2-2-2-2--6-2--2-2-2-2-2-2--8-6-2-2-2-2-2-2--2-2-------------------------

hard cause i think he taps 2 strings at once
-h15p10h11--h15p10h11--h15p10h11--h15p10h11--h14p9h12--h14p9h12--h14p9h12--h14p9h12
--h14p8h11---h14p8h11---h14p8h11---h14p8h11--h13p8h11--h13p8h11--h13p8h11--h13p8h11
-----------------------------------------------------------------------------------
-----------------------------------------------------------------------------------
-----------------------------------------------------------------------------------
-----------------------------------------------------------------------------------

-----------------------------------------------------------------------------------
-----------------------------------------------------------------------------------
-----------------------------------------------------------------------------------
--6-8--2-2-2-2-2-2--6-2--2-2-2-2-2-2--8-6-2-2-2-2-2-2----------2-2-2-2h3p2---------
--6-8--2-2-2-2-2-2--6-2--2-2-2-2-2-2--8-6-2-2-2-2-2-2------2-2---------------------
--6-8--2-2-2-2-2-2--6-2--2-2-2-2-2-2--8-6-2-2-2-2-2-2--2-2-------------------------

hard cause i think he taps 2 strings at once
-h15p10h11--h15p10h11--h15p10h11--h15p10h11--h14p9h12--h14p9h12--h14p9h12--h14p9h12
--h14p8h11---h14p8h11---h14p8h11---h14p8h11--h13p8h11--h13p8h11--h13p8h11--h13p8h11
-----------------------------------------------------------------------------------
-----------------------------------------------------------------------------------
-----------------------------------------------------------------------------------
-----------------------------------------------------------------------------------

 then
-----------------------------------------------------------------------------------
-------------------------fade out>>>>>>>>>>>>>>>>>>>>>>>>>>>>>>>>>>>>>>>>>>>>>-----
-----------------------------------------------------------------------------------
-9--9-8--8-5--5-4----9--9-8--8-5--5-4----9--9-8--8-5--5-4----9--9-8--8-5--5-4------
-9--9-8--8-5--5-4----9--9-8--8-5--5-4----9--9-8--8-5--5-4----9--9-8--8-5--5-4------
-9--9-8--8-5--5-4----9--9-8--8-5--5-4----9--9-8--8-5--5-4----9--9-8--8-5--5-4------

 second guitar plays little solo
-------------------------7~~-----------------------------------14-14-13~-----------
-0-0-0-0-0-0-0-0-0-0/12-12~~-----------------15-12~~-12-11~-11-----------0-0-0-0~~-
-------------------------------------9-11-12---------------------------------------
-----------------------------9-11-12--------------------------i-think-fade-out-----
----------------------------------------------------------------with-open-A's------
---------------------------------------------------------------(cant-hear)---------

bass plays along with this. (guitar is clean)
-------------------------------------------------0---------------------------------
-0---0---0-----0---0---0-----0---0---0-----0---0---0--------repeat-this-whole------
---3---3---3-----3---3---3-----3---3---3-----3-------3-------thing-8-times---------
-----------------------------------------------------------------------------------
-----------------------------------------------------------------------------------
-----------------------------------------------------------------------------------

-----------------------------------------------------------------------------------
-----------------------------------------------------------------------------------
--second-guitar-fades-out-at-the-end-of-the-song-with-a-harmonic--------<9>--------
-----------------------------------------------------------------------------------
-----------------------------------------------------------------------------------
-----------------------------------------------------------------------------------


thats as CLOSE as i could get it sounds good so dont complain!! heh heh -DiCk
any questions. comments.-> vdi_Sk8eR@yahoo.com
Добавлено: 28.06.2012
Другие материалы по этой песне:
  • Аккорды и текст

Страница создана 12.03.2012
http://primanota.ru/himsa/kiss-or-kill-chords.htm
Привет, Гость.
Предлагаем пройти революционный курс по гитаре.
Подарок от PrimaNota.Ru, забирай!