PrimaNota.ru - самый крупный в мире бесплатный архив песенных текстов, аккордов, табулатур и нот


Himsa - I Possession - таба, видео

Регистрация Запомнить меня
Войти через:  Facebook Google Twitter Vk Yandex Mail.ru

Himsa - I Possession - таба, видео

Печатать
Просмотров: 123
Уроки эстрадного вокала в Санкт-Петербурге
I Possession (intro):

Rhythm (strum):
-----------------------------------------------------------------|
-----------------------------------------------------------------|
-----------------------------------------------------------------|
-2-2-2-2-2-2-2-2-2-2-2-2-2-2-2-2-5-5-5-5-5-5-5-5-4-4-4-4-4-4-4-4-|
-2-2-2-2-2-2-2-2-2-2-2-2-2-2-2-2-5-5-5-5-5-5-5-5-5-5-5-5-5-5-5-5-|
-2-2-2-2-2-2-2-2-2-2-2-2-2-2-2-2-5-5-5-5-5-5-5-5-4-4-4-4-4-4-4-4-|

-------------------------------------------------------------------------|
-------------------------------------------------------------------------|
-------------------------------------------------------------------------|
-2-2-2-2-2-2-2-2-2-2-2-2-2-2-2-2-4-4-4-4-4-4-4-4-10-10-10-10-10-10-10-10-|
-2-2-2-2-2-2-2-2-2-2-2-2-2-2-2-2-5-5-5-5-5-5-5-5-10-10-10-10-10-10-10-10-|
-2-2-2-2-2-2-2-2-2-2-2-2-2-2-2-2-4-4-4-4-4-4-4-4-10-10-10-10-10-10-10-10-|

Lead:
--------------------------------------------------7-7---7--8--5-----/13b14~--|
---------------------0--0-1-------/4---5---4---------------------------------|
-----------------------------2-----------------------------------------------|
-----------------------------------------------------------------------------|
-----------------------------------------------------------------------------|
-----------------------------------------------------------------------------|

Verse:
-----------------------------------------------------------------|
-----------------------------------------------------------------|
-----------------------------------------------------------------|
-2-----2---0---3---2---0-----0-2-2-----2---0---5---3---3-----3-6-|
-----------------------------------------------------------------|
---2-2---2---2---2---2---2-2-------2-2---2---2---2---2---2-2-----|

-------------------------------------------------------------------|
-------------------------------------------------------------------|
-------------------------------------------------------------------|
-2-----2---0---3---2---0-----0-2-----------------------------------|
---------------------------------3-3-3-3-3-3-3-6--6-6-10--10-10-10-|
---2-2---2---2---2---2---2-2-----3-3-3-3-3-3-3-6--6-6-10--10-10-10-|

Then later it changes:
-----------------------------------------------------------------|
-----------------------------------------------------------------|
-----------------------------------------------------------------|
-2-----2---0---3---2---0-----0-2-2-----2---0---5---3---3-----3-6-|
-----------------------------------0-0---0---0---0---0---0-0-----|
---2-2---2---2---2---2---2-2-------------------------------------|

---------------------------------------------------------------|
---------------------------------------------------------------|
---------------------------------------------------------------|
-2-----2---0---3---2---0-----0-2-------------------------------|
---------------------------------3-3-3-3-3-3-3-6--6-6-5--5-5-5-|
---2-2---2---2---2---2---2-2-----3-3-3-3-3-3-3-6--6-6-5--5-5-5-|


that's all i've got
updates to come.. someday..

ewlord-1492@hotmail.com
Добавлено: 18.04.2012
Другие материалы по этой песне:
  • Аккорды и текст

Страница создана 18.04.2012
http://primanota.ru/himsa/i-possession-chords.htm
Привет, Гость.
Предлагаем пройти революционный курс по гитаре.
Подарок от PrimaNota.Ru, забирай!